ISO-10303-21;
HEADER;
FILE_DESCRIPTION (( 'STEP AP203' ),
    '1' );
FILE_NAME ('f91d.STEP',
    '2022-06-20T09:57:32',
    ( '' ),
    ( '' ),
    'SwSTEP 2.0',
    'SolidWorks 2019',
    '' );
FILE_SCHEMA (( 'CONFIG_CONTROL_DESIGN' ));
ENDSEC;

DATA;
#1 = DIRECTION ( 'NONE',  ( 1.000000000000000000, 0.000000000000000000, 0.000000000000000000 ) ) ;
#2 = DIRECTION ( 'NONE',  ( 0.000000000000000000, 0.000000000000000000, 1.000000000000000000 ) ) ;
#3 = AXIS2_PLACEMENT_3D ( 'NONE', #167, #20, #166 ) ;
#4 = ORGANIZATION ( 'NEURÈENÝ', 'NEURÈENÝ', '' ) ;
#5 = PLANE ( 'NONE',  #103 ) ;
#6 = CALENDAR_DATE ( 2022, 20, 6 ) ;
#7 = ORIENTED_EDGE ( 'NONE', *, *, #284, .F. ) ;
#8 = AXIS2_PLACEMENT_3D ( 'NONE', #243, #18, #159 ) ;
#9 = MECHANICAL_CONTEXT ( 'NONE', #205, 'mechanical' ) ;
#10 = EDGE_LOOP ( 'NONE', ( #293, #260, #146, #165 ) ) ;
#11 = CALENDAR_DATE ( 2022, 20, 6 ) ;
#12 = EDGE_LOOP ( 'NONE', ( #150, #204 ) ) ;
#13 = ORIENTED_EDGE ( 'NONE', *, *, #42, .T. ) ;
#14 = MANIFOLD_SOLID_BREP ( 'Zaoblit1', #290 ) ;
#15 = CYLINDRICAL_SURFACE ( 'NONE', #133, 6.000000000000000888 ) ;
#16 = CARTESIAN_POINT ( 'NONE',  ( 0.000000000000000000, 0.000000000000000000, 5.000000000000000000 ) ) ;
#17 = CARTESIAN_POINT ( 'NONE',  ( 0.000000000000000000, 0.000000000000000000, 0.000000000000000000 ) ) ;
#18 = DIRECTION ( 'NONE',  ( 1.224646799147353207E-16, 1.000000000000000000, -0.000000000000000000 ) ) ;
#19 =( NAMED_UNIT ( * ) PLANE_ANGLE_UNIT ( ) SI_UNIT ( $, .RADIAN. ) );
#20 = DIRECTION ( 'NONE',  ( 0.000000000000000000, 0.000000000000000000, 1.000000000000000000 ) ) ;
#21 = AXIS2_PLACEMENT_3D ( 'NONE', #215, #304, #38 ) ;
#22 = PRODUCT_DEFINITION_SHAPE ( 'NONE', 'NONE',  #169 ) ;
#23 = DIRECTION ( 'NONE',  ( 1.000000000000000000, 0.000000000000000000, -0.000000000000000000 ) ) ;
#24 = PLANE ( 'NONE',  #282 ) ;
#25 = LINE ( 'NONE', #195, #174 ) ;
#26 = CALENDAR_DATE ( 2022, 20, 6 ) ;
#27 = VECTOR ( 'NONE', #239, 1000.000000000000000 ) ;
#28 = DATE_AND_TIME ( #6, #183 ) ;
#29 = EDGE_LOOP ( 'NONE', ( #65, #277, #230, #7 ) ) ;
#30 = EDGE_CURVE ( 'NONE', #46, #68, #237, .T. ) ;
#31 = DATE_TIME_ROLE ( 'creation_date' ) ;
#32 = ORIENTED_EDGE ( 'NONE', *, *, #144, .F. ) ;
#33 = EDGE_CURVE ( 'NONE', #70, #68, #231, .T. ) ;
#34 = EDGE_LOOP ( 'NONE', ( #253, #280, #13, #127 ) ) ;
#35 = DIRECTION ( 'NONE',  ( -1.000000000000000000, 0.000000000000000000, 0.000000000000000000 ) ) ;
#36 = LINE ( 'NONE', #54, #120 ) ;
#37 = CARTESIAN_POINT ( 'NONE',  ( 0.000000000000000000, 0.000000000000000000, 5.000000000000000000 ) ) ;
#38 = DIRECTION ( 'NONE',  ( 1.000000000000000000, 0.000000000000000000, 0.000000000000000000 ) ) ;
#39 = AXIS2_PLACEMENT_3D ( 'NONE', #267, #44, #115 ) ;
#40 = LOCAL_TIME ( 11, 57, 32.00000000000000000, #249 ) ;
#41 = FACE_OUTER_BOUND ( 'NONE', #10, .T. ) ;
#42 = EDGE_CURVE ( 'NONE', #93, #70, #188, .T. ) ;
#43 = CARTESIAN_POINT ( 'NONE',  ( -3.000000000000000444, 0.000000000000000000, 805.0000000000000000 ) ) ;
#44 = DIRECTION ( 'NONE',  ( 0.000000000000000000, 0.000000000000000000, 1.000000000000000000 ) ) ;
#45 = COORDINATED_UNIVERSAL_TIME_OFFSET ( 1, 0, .AHEAD. ) ;
#46 = VERTEX_POINT ( 'NONE', #281 ) ;
#47 = APPROVAL_ROLE ( '' ) ;
#48 = APPLICATION_PROTOCOL_DEFINITION ( 'international standard', 'config_control_design', 1994, #205 ) ;
#49 = ORIENTED_EDGE ( 'NONE', *, *, #144, .T. ) ;
#50 = DIRECTION ( 'NONE',  ( 1.000000000000000000, 0.000000000000000000, 0.000000000000000000 ) ) ;
#51 = AXIS2_PLACEMENT_3D ( 'NONE', #155, #53, #35 ) ;
#52 = APPROVAL_PERSON_ORGANIZATION ( #296, #262, #47 ) ;
#53 = DIRECTION ( 'NONE',  ( -0.000000000000000000, -0.000000000000000000, -1.000000000000000000 ) ) ;
#54 = CARTESIAN_POINT ( 'NONE',  ( 3.000000000000000444, 3.673940397442060361E-16, 805.0000000000000000 ) ) ;
#55 = FACE_BOUND ( 'NONE', #126, .T. ) ;
#56 = DIRECTION ( 'NONE',  ( 1.000000000000000000, 0.000000000000000000, 0.000000000000000000 ) ) ;
#57 = AXIS2_PLACEMENT_3D ( 'NONE', #85, #223, #91 ) ;
#58 = CARTESIAN_POINT ( 'NONE',  ( 0.000000000000000000, 0.000000000000000000, 805.0000000000000000 ) ) ;
#59 = CC_DESIGN_PERSON_AND_ORGANIZATION_ASSIGNMENT ( #179, #152, ( #86 ) ) ;
#60 = DIRECTION ( 'NONE',  ( 0.000000000000000000, 0.000000000000000000, 1.000000000000000000 ) ) ;
#61 = EDGE_CURVE ( 'NONE', #93, #46, #76, .T. ) ;
#62 = CARTESIAN_POINT ( 'NONE',  ( 6.000000000000000888, 7.347880794884120722E-16, 5.000000000000000000 ) ) ;
#63 = FACE_OUTER_BOUND ( 'NONE', #106, .T. ) ;
#64 = APPROVAL_STATUS ( 'not_yet_approved' ) ;
#65 = ORIENTED_EDGE ( 'NONE', *, *, #264, .F. ) ;
#66 = EDGE_CURVE ( 'NONE', #255, #93, #36, .T. ) ;
#67 = ORIENTED_EDGE ( 'NONE', *, *, #194, .F. ) ;
#68 = VERTEX_POINT ( 'NONE', #130 ) ;
#69 = ADVANCED_FACE ( 'NONE', ( #185 ), #218, .T. ) ;
#70 = VERTEX_POINT ( 'NONE', #238 ) ;
#71 = CC_DESIGN_SECURITY_CLASSIFICATION ( #299, ( #283 ) ) ;
#72 = COORDINATED_UNIVERSAL_TIME_OFFSET ( 1, 0, .AHEAD. ) ;
#73 = APPROVAL ( #257, 'NEURÈENÝ' ) ;
#74 = LINE ( 'NONE', #191, #27 ) ;
#75 = CARTESIAN_POINT ( 'NONE',  ( 0.000000000000000000, 0.000000000000000000, 805.0000000000000000 ) ) ;
#76 = CIRCLE ( 'NONE', #162, 3.000000000000000444 ) ;
#77 = CC_DESIGN_APPROVAL ( #73, ( #283 ) ) ;
#78 = DIRECTION ( 'NONE',  ( -0.000000000000000000, -0.000000000000000000, -1.000000000000000000 ) ) ;
#79 = CARTESIAN_POINT ( 'NONE',  ( 0.000000000000000000, 0.000000000000000000, 5.000000000000000000 ) ) ;
#80 = ORIENTED_EDGE ( 'NONE', *, *, #110, .F. ) ;
#81 = EDGE_CURVE ( 'NONE', #68, #70, #303, .T. ) ;
#82 = AXIS2_PLACEMENT_3D ( 'NONE', #16, #78, #50 ) ;
#83 = DIRECTION ( 'NONE',  ( 0.000000000000000000, 0.000000000000000000, 1.000000000000000000 ) ) ;
#84 = APPROVAL_PERSON_ORGANIZATION ( #143, #291, #273 ) ;
#85 = CARTESIAN_POINT ( 'NONE',  ( 0.000000000000000000, 0.000000000000000000, 5.199999999999982414 ) ) ;
#86 = PRODUCT ( 'f91d', 'f91d', '', ( #9 ) ) ;
#87 = DIRECTION ( 'NONE',  ( -0.000000000000000000, -0.000000000000000000, -1.000000000000000000 ) ) ;
#88 = DIRECTION ( 'NONE',  ( 1.000000000000000000, 0.000000000000000000, -0.000000000000000000 ) ) ;
#89 = CIRCLE ( 'NONE', #3, 3.000000000000000444 ) ;
#90 = TOROIDAL_SURFACE ( 'NONE', #254, 3.200000000000000622, 0.2000000000000000111 ) ;
#91 = DIRECTION ( 'NONE',  ( 1.000000000000000000, 0.000000000000000000, 0.000000000000000000 ) ) ;
#92 = PERSON_AND_ORGANIZATION ( #116, #4 ) ;
#93 = VERTEX_POINT ( 'NONE', #111 ) ;
#94 = EDGE_CURVE ( 'NONE', #134, #123, #74, .T. ) ;
#95 = PERSON_AND_ORGANIZATION_ROLE ( 'creator' ) ;
#96 = ORIENTED_EDGE ( 'NONE', *, *, #284, .T. ) ;
#97 = LOCAL_TIME ( 11, 57, 32.00000000000000000, #45 ) ;
#98 = PERSON_AND_ORGANIZATION ( #116, #4 ) ;
#99 = DATE_AND_TIME ( #250, #227 ) ;
#100 = ORIENTED_EDGE ( 'NONE', *, *, #81, .T. ) ;
#101 = COORDINATED_UNIVERSAL_TIME_OFFSET ( 1, 0, .AHEAD. ) ;
#102 = ORIENTED_EDGE ( 'NONE', *, *, #94, .F. ) ;
#103 = AXIS2_PLACEMENT_3D ( 'NONE', #288, #60, #88 ) ;
#104 = TOROIDAL_SURFACE ( 'NONE', #57, 3.200000000000000622, 0.2000000000000000111 ) ;
#105 = DIRECTION ( 'NONE',  ( 0.000000000000000000, 0.000000000000000000, 1.000000000000000000 ) ) ;
#106 = EDGE_LOOP ( 'NONE', ( #274, #176, #208, #300 ) ) ;
#107 = CARTESIAN_POINT ( 'NONE',  ( 3.200000000000000622, 0.000000000000000000, 5.199999999999982414 ) ) ;
#108 = CIRCLE ( 'NONE', #21, 6.000000000000000888 ) ;
#109 = DIRECTION ( 'NONE',  ( -1.000000000000000000, 0.000000000000000000, 0.000000000000000000 ) ) ;
#110 = EDGE_CURVE ( 'NONE', #235, #123, #108, .T. ) ;
#111 = CARTESIAN_POINT ( 'NONE',  ( 3.000000000000000444, 3.673940397442060361E-16, 5.199999999999982414 ) ) ;
#112 = DIRECTION ( 'NONE',  ( 0.000000000000000000, 0.000000000000000000, 1.000000000000000000 ) ) ;
#113 = DIRECTION ( 'NONE',  ( 1.000000000000000000, 0.000000000000000000, 0.000000000000000000 ) ) ;
#114 = CARTESIAN_POINT ( 'NONE',  ( 0.000000000000000000, 0.000000000000000000, 805.0000000000000000 ) ) ;
#115 = DIRECTION ( 'NONE',  ( 1.000000000000000000, 0.000000000000000000, 0.000000000000000000 ) ) ;
#116 = PERSON ( 'NEURÈENÝ', 'NEURÈENÝ', 'NEURÈENÝ', ('NEURÈENÝ'), ('NEURÈENÝ'), ('NEURÈENÝ') ) ;
#117 = CIRCLE ( 'NONE', #121, 3.000000000000000444 ) ;
#118 = SHAPE_DEFINITION_REPRESENTATION ( #22, #196 ) ;
#119 = CARTESIAN_POINT ( 'NONE',  ( 0.000000000000000000, 0.000000000000000000, 0.000000000000000000 ) ) ;
#120 = VECTOR ( 'NONE', #259, 1000.000000000000000 ) ;
#121 = AXIS2_PLACEMENT_3D ( 'NONE', #58, #2, #1 ) ;
#122 = DATE_AND_TIME ( #26, #171 ) ;
#123 = VERTEX_POINT ( 'NONE', #285 ) ;
#124 = CC_DESIGN_PERSON_AND_ORGANIZATION_ASSIGNMENT ( #92, #95, ( #169 ) ) ;
#125 = APPROVAL_DATE_TIME ( #147, #291 ) ;
#126 = EDGE_LOOP ( 'NONE', ( #258, #100 ) ) ;
#127 = ORIENTED_EDGE ( 'NONE', *, *, #81, .F. ) ;
#128 = EDGE_CURVE ( 'NONE', #123, #235, #181, .T. ) ;
#129 = DIRECTION ( 'NONE',  ( -0.000000000000000000, -0.000000000000000000, -1.000000000000000000 ) ) ;
#130 = CARTESIAN_POINT ( 'NONE',  ( -3.200000000000000622, 3.918869757271530953E-16, 4.999999999999991118 ) ) ;
#131 = ORIENTED_EDGE ( 'NONE', *, *, #128, .F. ) ;
#132 = ADVANCED_FACE ( 'NONE', ( #189 ), #160, .T. ) ;
#133 = AXIS2_PLACEMENT_3D ( 'NONE', #37, #214, #109 ) ;
#134 = VERTEX_POINT ( 'NONE', #261 ) ;
#135 = EDGE_CURVE ( 'NONE', #175, #235, #287, .T. ) ;
#136 = DIRECTION ( 'NONE',  ( 0.000000000000000000, 0.000000000000000000, -1.000000000000000000 ) ) ;
#137 = DIRECTION ( 'NONE',  ( -0.000000000000000000, -0.000000000000000000, -1.000000000000000000 ) ) ;
#138 = AXIS2_PLACEMENT_3D ( 'NONE', #114, #87, #192 ) ;
#139 =( NAMED_UNIT ( * ) SI_UNIT ( $, .STERADIAN. ) SOLID_ANGLE_UNIT ( ) );
#140 = CYLINDRICAL_SURFACE ( 'NONE', #222, 6.000000000000000888 ) ;
#141 = DIRECTION ( 'NONE',  ( -1.000000000000000000, 0.000000000000000000, 0.000000000000000000 ) ) ;
#142 = ADVANCED_FACE ( 'NONE', ( #41 ), #15, .T. ) ;
#143 = PERSON_AND_ORGANIZATION ( #116, #4 ) ;
#144 = EDGE_CURVE ( 'NONE', #175, #134, #164, .T. ) ;
#145 = SECURITY_CLASSIFICATION_LEVEL ( 'unclassified' ) ;
#146 = ORIENTED_EDGE ( 'NONE', *, *, #94, .T. ) ;
#147 = DATE_AND_TIME ( #11, #97 ) ;
#148 = CALENDAR_DATE ( 2022, 20, 6 ) ;
#149 = AXIS2_PLACEMENT_3D ( 'NONE', #75, #105, #307 ) ;
#150 = ORIENTED_EDGE ( 'NONE', *, *, #194, .T. ) ;
#151 = ADVANCED_FACE ( 'NONE', ( #55, #263 ), #24, .T. ) ;
#152 = PERSON_AND_ORGANIZATION_ROLE ( 'design_owner' ) ;
#153 = EDGE_LOOP ( 'NONE', ( #178, #67, #96, #251 ) ) ;
#154 = ADVANCED_FACE ( 'NONE', ( #266 ), #5, .F. ) ;
#155 = CARTESIAN_POINT ( 'NONE',  ( 0.000000000000000000, 0.000000000000000000, 805.0000000000000000 ) ) ;
#156 = VECTOR ( 'NONE', #129, 1000.000000000000000 ) ;
#157 = CC_DESIGN_APPROVAL ( #291, ( #169 ) ) ;
#158 = CC_DESIGN_PERSON_AND_ORGANIZATION_ASSIGNMENT ( #184, #198, ( #283 ) ) ;
#159 = DIRECTION ( 'NONE',  ( -1.000000000000000000, 1.224646799147353207E-16, 0.000000000000000000 ) ) ;
#160 = CYLINDRICAL_SURFACE ( 'NONE', #51, 3.000000000000000444 ) ;
#161 = DIRECTION ( 'NONE',  ( 1.000000000000000000, 0.000000000000000000, 0.000000000000000000 ) ) ;
#162 = AXIS2_PLACEMENT_3D ( 'NONE', #187, #219, #161 ) ;
#163 = UNCERTAINTY_MEASURE_WITH_UNIT (LENGTH_MEASURE( 1.000000000000000082E-05 ), #269, 'distance_accuracy_value', 'NONE');
#164 = CIRCLE ( 'NONE', #241, 6.000000000000000888 ) ;
#165 = ORIENTED_EDGE ( 'NONE', *, *, #128, .T. ) ;
#166 = DIRECTION ( 'NONE',  ( 1.000000000000000000, 0.000000000000000000, 0.000000000000000000 ) ) ;
#167 = CARTESIAN_POINT ( 'NONE',  ( 0.000000000000000000, 0.000000000000000000, 805.0000000000000000 ) ) ;
#168 = AXIS2_PLACEMENT_3D ( 'NONE', #212, #301, #56 ) ;
#169 = PRODUCT_DEFINITION ( 'NEZNÁMÝ', '', #283, #244 ) ;
#170 = CARTESIAN_POINT ( 'NONE',  ( 0.000000000000000000, 0.000000000000000000, 5.000000000000000000 ) ) ;
#171 = LOCAL_TIME ( 11, 57, 32.00000000000000000, #72 ) ;
#172 = DIRECTION ( 'NONE',  ( 1.000000000000000000, 0.000000000000000000, 0.000000000000000000 ) ) ;
#173 = APPLICATION_PROTOCOL_DEFINITION ( 'international standard', 'config_control_design', 1994, #248 ) ;
#174 = VECTOR ( 'NONE', #197, 1000.000000000000000 ) ;
#175 = VERTEX_POINT ( 'NONE', #62 ) ;
#176 = ORIENTED_EDGE ( 'NONE', *, *, #30, .T. ) ;
#177 = APPROVAL_DATE_TIME ( #229, #73 ) ;
#178 = ORIENTED_EDGE ( 'NONE', *, *, #66, .F. ) ;
#179 = PERSON_AND_ORGANIZATION ( #116, #4 ) ;
#180 = VERTEX_POINT ( 'NONE', #43 ) ;
#181 = CIRCLE ( 'NONE', #232, 6.000000000000000888 ) ;
#182 = CIRCLE ( 'NONE', #39, 6.000000000000000888 ) ;
#183 = LOCAL_TIME ( 11, 57, 32.00000000000000000, #101 ) ;
#184 = PERSON_AND_ORGANIZATION ( #116, #4 ) ;
#185 = FACE_OUTER_BOUND ( 'NONE', #12, .T. ) ;
#186 = CC_DESIGN_DATE_AND_TIME_ASSIGNMENT ( #122, #203, ( #299 ) ) ;
#187 = CARTESIAN_POINT ( 'NONE',  ( 0.000000000000000000, 0.000000000000000000, 5.199999999999982414 ) ) ;
#188 = CIRCLE ( 'NONE', #297, 0.1999999999999996503 ) ;
#189 = FACE_OUTER_BOUND ( 'NONE', #29, .T. ) ;
#190 = DIRECTION ( 'NONE',  ( 0.000000000000000000, 0.000000000000000000, 1.000000000000000000 ) ) ;
#191 = CARTESIAN_POINT ( 'NONE',  ( -6.000000000000000888, 0.000000000000000000, 5.000000000000000000 ) ) ;
#192 = DIRECTION ( 'NONE',  ( -1.000000000000000000, 0.000000000000000000, 0.000000000000000000 ) ) ;
#193 = FACE_OUTER_BOUND ( 'NONE', #233, .T. ) ;
#194 = EDGE_CURVE ( 'NONE', #180, #255, #89, .T. ) ;
#195 = CARTESIAN_POINT ( 'NONE',  ( -3.000000000000000444, 0.000000000000000000, 805.0000000000000000 ) ) ;
#196 = ADVANCED_BREP_SHAPE_REPRESENTATION ( 'f91d', ( #14, #216 ), #305 ) ;
#197 = DIRECTION ( 'NONE',  ( -0.000000000000000000, -0.000000000000000000, -1.000000000000000000 ) ) ;
#198 = PERSON_AND_ORGANIZATION_ROLE ( 'design_supplier' ) ;
#199 = ORIENTED_EDGE ( 'NONE', *, *, #110, .T. ) ;
#200 = APPROVAL_ROLE ( '' ) ;
#201 = APPROVAL_PERSON_ORGANIZATION ( #228, #73, #200 ) ;
#202 = ORIENTED_EDGE ( 'NONE', *, *, #135, .T. ) ;
#203 = DATE_TIME_ROLE ( 'classification_date' ) ;
#204 = ORIENTED_EDGE ( 'NONE', *, *, #264, .T. ) ;
#205 = APPLICATION_CONTEXT ( 'configuration controlled 3d designs of mechanical parts and assemblies' ) ;
#206 = PRODUCT_RELATED_PRODUCT_CATEGORY ( 'detail', '', ( #86 ) ) ;
#207 = APPROVAL_DATE_TIME ( #99, #262 ) ;
#208 = ORIENTED_EDGE ( 'NONE', *, *, #33, .F. ) ;
#209 = PERSON_AND_ORGANIZATION_ROLE ( 'classification_officer' ) ;
#210 = EDGE_CURVE ( 'NONE', #134, #175, #182, .T. ) ;
#211 = ORIENTED_EDGE ( 'NONE', *, *, #210, .T. ) ;
#212 = CARTESIAN_POINT ( 'NONE',  ( 0.000000000000000000, 0.000000000000000000, 5.000000000000000000 ) ) ;
#213 = ADVANCED_FACE ( 'NONE', ( #245 ), #246, .T. ) ;
#214 = DIRECTION ( 'NONE',  ( -0.000000000000000000, -0.000000000000000000, -1.000000000000000000 ) ) ;
#215 = CARTESIAN_POINT ( 'NONE',  ( 0.000000000000000000, 0.000000000000000000, 0.000000000000000000 ) ) ;
#216 = AXIS2_PLACEMENT_3D ( 'NONE', #119, #271, #298 ) ;
#217 = CC_DESIGN_DATE_AND_TIME_ASSIGNMENT ( #28, #31, ( #169 ) ) ;
#218 = PLANE ( 'NONE',  #149 ) ;
#219 = DIRECTION ( 'NONE',  ( 0.000000000000000000, 0.000000000000000000, 1.000000000000000000 ) ) ;
#220 = CARTESIAN_POINT ( 'NONE',  ( 6.000000000000000888, 7.347880794884120722E-16, 0.000000000000000000 ) ) ;
#221 = ADVANCED_FACE ( 'NONE', ( #193 ), #140, .T. ) ;
#222 = AXIS2_PLACEMENT_3D ( 'NONE', #289, #137, #141 ) ;
#223 = DIRECTION ( 'NONE',  ( 0.000000000000000000, 0.000000000000000000, 1.000000000000000000 ) ) ;
#224 = CARTESIAN_POINT ( 'NONE',  ( 0.000000000000000000, 0.000000000000000000, 5.199999999999982414 ) ) ;
#225 = DIRECTION ( 'NONE',  ( 0.000000000000000000, 0.000000000000000000, 1.000000000000000000 ) ) ;
#226 = EDGE_CURVE ( 'NONE', #46, #93, #276, .T. ) ;
#227 = LOCAL_TIME ( 11, 57, 32.00000000000000000, #234 ) ;
#228 = PERSON_AND_ORGANIZATION ( #116, #4 ) ;
#229 = DATE_AND_TIME ( #148, #40 ) ;
#230 = ORIENTED_EDGE ( 'NONE', *, *, #61, .T. ) ;
#231 = CIRCLE ( 'NONE', #82, 3.200000000000000622 ) ;
#232 = AXIS2_PLACEMENT_3D ( 'NONE', #17, #306, #302 ) ;
#233 = EDGE_LOOP ( 'NONE', ( #32, #202, #199, #102 ) ) ;
#234 = COORDINATED_UNIVERSAL_TIME_OFFSET ( 1, 0, .AHEAD. ) ;
#235 = VERTEX_POINT ( 'NONE', #220 ) ;
#236 = PERSON_AND_ORGANIZATION ( #116, #4 ) ;
#237 = CIRCLE ( 'NONE', #8, 0.2000000000000000944 ) ;
#238 = CARTESIAN_POINT ( 'NONE',  ( 3.200000000000000622, 0.000000000000000000, 4.999999999999991118 ) ) ;
#239 = DIRECTION ( 'NONE',  ( -0.000000000000000000, -0.000000000000000000, -1.000000000000000000 ) ) ;
#240 = DIRECTION ( 'NONE',  ( 0.000000000000000000, -1.000000000000000000, 0.000000000000000000 ) ) ;
#241 = AXIS2_PLACEMENT_3D ( 'NONE', #79, #190, #286 ) ;
#242 = AXIS2_PLACEMENT_3D ( 'NONE', #292, #112, #113 ) ;
#243 = CARTESIAN_POINT ( 'NONE',  ( -3.200000000000000622, 3.918869757271530953E-16, 5.199999999999982414 ) ) ;
#244 = DESIGN_CONTEXT ( 'detailed design', #248, 'design' ) ;
#245 = FACE_OUTER_BOUND ( 'NONE', #153, .T. ) ;
#246 = CYLINDRICAL_SURFACE ( 'NONE', #138, 3.000000000000000444 ) ;
#247 = CARTESIAN_POINT ( 'NONE',  ( 3.000000000000000444, 3.673940397442060361E-16, 805.0000000000000000 ) ) ;
#248 = APPLICATION_CONTEXT ( 'configuration controlled 3d designs of mechanical parts and assemblies' ) ;
#249 = COORDINATED_UNIVERSAL_TIME_OFFSET ( 1, 0, .AHEAD. ) ;
#250 = CALENDAR_DATE ( 2022, 20, 6 ) ;
#251 = ORIENTED_EDGE ( 'NONE', *, *, #226, .T. ) ;
#252 = CC_DESIGN_PERSON_AND_ORGANIZATION_ASSIGNMENT ( #236, #209, ( #299 ) ) ;
#253 = ORIENTED_EDGE ( 'NONE', *, *, #30, .F. ) ;
#254 = AXIS2_PLACEMENT_3D ( 'NONE', #224, #225, #172 ) ;
#255 = VERTEX_POINT ( 'NONE', #247 ) ;
#256 = ADVANCED_FACE ( 'NONE', ( #268 ), #104, .F. ) ;
#257 = APPROVAL_STATUS ( 'not_yet_approved' ) ;
#258 = ORIENTED_EDGE ( 'NONE', *, *, #33, .T. ) ;
#259 = DIRECTION ( 'NONE',  ( -0.000000000000000000, -0.000000000000000000, -1.000000000000000000 ) ) ;
#260 = ORIENTED_EDGE ( 'NONE', *, *, #210, .F. ) ;
#261 = CARTESIAN_POINT ( 'NONE',  ( -6.000000000000000888, 0.000000000000000000, 5.000000000000000000 ) ) ;
#262 = APPROVAL ( #275, 'NEURÈENÝ' ) ;
#263 = FACE_OUTER_BOUND ( 'NONE', #279, .T. ) ;
#264 = EDGE_CURVE ( 'NONE', #255, #180, #117, .T. ) ;
#265 = CARTESIAN_POINT ( 'NONE',  ( 6.000000000000000888, 7.347880794884120722E-16, 5.000000000000000000 ) ) ;
#266 = FACE_OUTER_BOUND ( 'NONE', #294, .T. ) ;
#267 = CARTESIAN_POINT ( 'NONE',  ( 0.000000000000000000, 0.000000000000000000, 5.000000000000000000 ) ) ;
#268 = FACE_OUTER_BOUND ( 'NONE', #34, .T. ) ;
#269 =( LENGTH_UNIT ( ) NAMED_UNIT ( * ) SI_UNIT ( .MILLI., .METRE. ) );
#270 = CC_DESIGN_APPROVAL ( #262, ( #299 ) ) ;
#271 = DIRECTION ( 'NONE',  ( 0.000000000000000000, 0.000000000000000000, 1.000000000000000000 ) ) ;
#272 = CC_DESIGN_PERSON_AND_ORGANIZATION_ASSIGNMENT ( #98, #278, ( #283 ) ) ;
#273 = APPROVAL_ROLE ( '' ) ;
#274 = ORIENTED_EDGE ( 'NONE', *, *, #226, .F. ) ;
#275 = APPROVAL_STATUS ( 'not_yet_approved' ) ;
#276 = CIRCLE ( 'NONE', #242, 3.000000000000000444 ) ;
#277 = ORIENTED_EDGE ( 'NONE', *, *, #66, .T. ) ;
#278 = PERSON_AND_ORGANIZATION_ROLE ( 'creator' ) ;
#279 = EDGE_LOOP ( 'NONE', ( #211, #49 ) ) ;
#280 = ORIENTED_EDGE ( 'NONE', *, *, #61, .F. ) ;
#281 = CARTESIAN_POINT ( 'NONE',  ( -3.000000000000000444, 0.000000000000000000, 5.199999999999982414 ) ) ;
#282 = AXIS2_PLACEMENT_3D ( 'NONE', #170, #83, #23 ) ;
#283 = PRODUCT_DEFINITION_FORMATION_WITH_SPECIFIED_SOURCE ( 'LIBOVOLNÝ', '', #86, .NOT_KNOWN. ) ;
#284 = EDGE_CURVE ( 'NONE', #180, #46, #25, .T. ) ;
#285 = CARTESIAN_POINT ( 'NONE',  ( -6.000000000000000888, 0.000000000000000000, 0.000000000000000000 ) ) ;
#286 = DIRECTION ( 'NONE',  ( 1.000000000000000000, 0.000000000000000000, 0.000000000000000000 ) ) ;
#287 = LINE ( 'NONE', #265, #156 ) ;
#288 = CARTESIAN_POINT ( 'NONE',  ( 0.000000000000000000, 0.000000000000000000, 0.000000000000000000 ) ) ;
#289 = CARTESIAN_POINT ( 'NONE',  ( 0.000000000000000000, 0.000000000000000000, 5.000000000000000000 ) ) ;
#290 = CLOSED_SHELL ( 'NONE', ( #295, #132, #221, #142, #151, #154, #213, #69, #256 ) ) ;
#291 = APPROVAL ( #64, 'NEURÈENÝ' ) ;
#292 = CARTESIAN_POINT ( 'NONE',  ( 0.000000000000000000, 0.000000000000000000, 5.199999999999982414 ) ) ;
#293 = ORIENTED_EDGE ( 'NONE', *, *, #135, .F. ) ;
#294 = EDGE_LOOP ( 'NONE', ( #131, #80 ) ) ;
#295 = ADVANCED_FACE ( 'NONE', ( #63 ), #90, .F. ) ;
#296 = PERSON_AND_ORGANIZATION ( #116, #4 ) ;
#297 = AXIS2_PLACEMENT_3D ( 'NONE', #107, #240, #136 ) ;
#298 = DIRECTION ( 'NONE',  ( 1.000000000000000000, 0.000000000000000000, 0.000000000000000000 ) ) ;
#299 = SECURITY_CLASSIFICATION ( '', '', #145 ) ;
#300 = ORIENTED_EDGE ( 'NONE', *, *, #42, .F. ) ;
#301 = DIRECTION ( 'NONE',  ( -0.000000000000000000, -0.000000000000000000, -1.000000000000000000 ) ) ;
#302 = DIRECTION ( 'NONE',  ( 1.000000000000000000, 0.000000000000000000, 0.000000000000000000 ) ) ;
#303 = CIRCLE ( 'NONE', #168, 3.200000000000000622 ) ;
#304 = DIRECTION ( 'NONE',  ( 0.000000000000000000, 0.000000000000000000, 1.000000000000000000 ) ) ;
#305 =( GEOMETRIC_REPRESENTATION_CONTEXT ( 3 ) GLOBAL_UNCERTAINTY_ASSIGNED_CONTEXT ( ( #163 ) ) GLOBAL_UNIT_ASSIGNED_CONTEXT ( ( #269, #19, #139 ) ) REPRESENTATION_CONTEXT ( 'NONE', 'WORKASPACE' ) );
#306 = DIRECTION ( 'NONE',  ( 0.000000000000000000, 0.000000000000000000, 1.000000000000000000 ) ) ;
#307 = DIRECTION ( 'NONE',  ( 1.000000000000000000, 0.000000000000000000, -0.000000000000000000 ) ) ;
ENDSEC;
END-ISO-10303-21;
