ISO-10303-21;
HEADER;
FILE_DESCRIPTION (( 'STEP AP203' ),
    '1' );
FILE_NAME ('a5e0.STEP',
    '2022-06-20T10:23:25',
    ( '' ),
    ( '' ),
    'SwSTEP 2.0',
    'SolidWorks 2019',
    '' );
FILE_SCHEMA (( 'CONFIG_CONTROL_DESIGN' ));
ENDSEC;

DATA;
#1 = DIRECTION ( 'NONE',  ( -1.000000000000000000, 1.224646799147353207E-16, 0.000000000000000000 ) ) ;
#2 = CIRCLE ( 'NONE', #175, 1.500000000000000222 ) ;
#3 = LOCAL_TIME ( 12, 23, 25.00000000000000000, #94 ) ;
#4 = APPLICATION_PROTOCOL_DEFINITION ( 'international standard', 'config_control_design', 1994, #81 ) ;
#5 = APPROVAL_STATUS ( 'not_yet_approved' ) ;
#6 = ADVANCED_FACE ( 'NONE', ( #186 ), #225, .T. ) ;
#7 = FACE_OUTER_BOUND ( 'NONE', #206, .T. ) ;
#8 = VERTEX_POINT ( 'NONE', #182 ) ;
#9 = CARTESIAN_POINT ( 'NONE',  ( 0.6999999999999999556, 8.572527594031471957E-17, 1.700000000000007061 ) ) ;
#10 = DIRECTION ( 'NONE',  ( 0.000000000000000000, 0.000000000000000000, 1.000000000000000000 ) ) ;
#11 = EDGE_CURVE ( 'NONE', #45, #86, #284, .T. ) ;
#12 = ORIENTED_EDGE ( 'NONE', *, *, #265, .F. ) ;
#13 = FACE_OUTER_BOUND ( 'NONE', #56, .T. ) ;
#14 = VECTOR ( 'NONE', #178, 1000.000000000000000 ) ;
#15 = ORIENTED_EDGE ( 'NONE', *, *, #265, .T. ) ;
#16 = AXIS2_PLACEMENT_3D ( 'NONE', #259, #67, #117 ) ;
#17 = PLANE ( 'NONE',  #236 ) ;
#18 = ORIENTED_EDGE ( 'NONE', *, *, #258, .F. ) ;
#19 =( LENGTH_UNIT ( ) NAMED_UNIT ( * ) SI_UNIT ( .MILLI., .METRE. ) );
#20 = DIRECTION ( 'NONE',  ( 1.000000000000000000, 0.000000000000000000, 0.000000000000000000 ) ) ;
#21 = CIRCLE ( 'NONE', #277, 1.500000000000000222 ) ;
#22 = ADVANCED_FACE ( 'NONE', ( #7 ), #33, .T. ) ;
#23 = AXIS2_PLACEMENT_3D ( 'NONE', #87, #136, #49 ) ;
#24 = DIRECTION ( 'NONE',  ( 0.000000000000000000, 0.000000000000000000, 1.000000000000000000 ) ) ;
#25 = CALENDAR_DATE ( 2022, 20, 6 ) ;
#26 = APPROVAL_DATE_TIME ( #197, #145 ) ;
#27 = DATE_TIME_ROLE ( 'creation_date' ) ;
#28 = CIRCLE ( 'NONE', #269, 0.6999999999999999556 ) ;
#29 = CARTESIAN_POINT ( 'NONE',  ( 0.000000000000000000, 0.000000000000000000, 0.000000000000000000 ) ) ;
#30 = ADVANCED_FACE ( 'NONE', ( #13 ), #96, .F. ) ;
#31 = DIRECTION ( 'NONE',  ( 0.000000000000000000, 0.000000000000000000, 1.000000000000000000 ) ) ;
#32 = LOCAL_TIME ( 12, 23, 25.00000000000000000, #240 ) ;
#33 = CYLINDRICAL_SURFACE ( 'NONE', #244, 1.500000000000000222 ) ;
#34 = ORIENTED_EDGE ( 'NONE', *, *, #291, .T. ) ;
#35 = CC_DESIGN_PERSON_AND_ORGANIZATION_ASSIGNMENT ( #54, #147, ( #137 ) ) ;
#36 = AXIS2_PLACEMENT_3D ( 'NONE', #130, #37, #153 ) ;
#37 = DIRECTION ( 'NONE',  ( 0.000000000000000000, -1.000000000000000000, 0.000000000000000000 ) ) ;
#38 = DIRECTION ( 'NONE',  ( -1.000000000000000000, 0.000000000000000000, 0.000000000000000000 ) ) ;
#39 = ORIENTED_EDGE ( 'NONE', *, *, #121, .F. ) ;
#40 = CYLINDRICAL_SURFACE ( 'NONE', #193, 0.6999999999999999556 ) ;
#41 = EDGE_CURVE ( 'NONE', #127, #253, #21, .T. ) ;
#42 = ORIENTED_EDGE ( 'NONE', *, *, #215, .T. ) ;
#43 = FACE_OUTER_BOUND ( 'NONE', #274, .T. ) ;
#44 = AXIS2_PLACEMENT_3D ( 'NONE', #226, #31, #126 ) ;
#45 = VERTEX_POINT ( 'NONE', #9 ) ;
#46 = DIRECTION ( 'NONE',  ( 1.000000000000000000, 0.000000000000000000, -0.000000000000000000 ) ) ;
#47 = CARTESIAN_POINT ( 'NONE',  ( 0.6999999999999999556, 8.572527594031471957E-17, 161.5000000000000000 ) ) ;
#48 = DESIGN_CONTEXT ( 'detailed design', #81, 'design' ) ;
#49 = DIRECTION ( 'NONE',  ( 1.000000000000000000, 0.000000000000000000, 0.000000000000000000 ) ) ;
#50 = CARTESIAN_POINT ( 'NONE',  ( 0.000000000000000000, 0.000000000000000000, 161.5000000000000000 ) ) ;
#51 = CALENDAR_DATE ( 2022, 20, 6 ) ;
#52 = CC_DESIGN_DATE_AND_TIME_ASSIGNMENT ( #263, #122, ( #137 ) ) ;
#53 = PERSON_AND_ORGANIZATION ( #218, #203 ) ;
#54 = PERSON_AND_ORGANIZATION ( #218, #203 ) ;
#55 = ADVANCED_BREP_SHAPE_REPRESENTATION ( 'a5e0', ( #97, #294 ), #187 ) ;
#56 = EDGE_LOOP ( 'NONE', ( #303, #129, #280, #205 ) ) ;
#57 = ADVANCED_FACE ( 'NONE', ( #296, #181 ), #60, .T. ) ;
#58 = ORIENTED_EDGE ( 'NONE', *, *, #179, .F. ) ;
#59 = DIRECTION ( 'NONE',  ( 1.000000000000000000, 0.000000000000000000, 0.000000000000000000 ) ) ;
#60 = PLANE ( 'NONE',  #140 ) ;
#61 = AXIS2_PLACEMENT_3D ( 'NONE', #307, #237, #114 ) ;
#62 = ORIENTED_EDGE ( 'NONE', *, *, #118, .F. ) ;
#63 = CARTESIAN_POINT ( 'NONE',  ( -0.9000000000000000222, 1.102182119232617788E-16, 1.700000000000007061 ) ) ;
#64 = VERTEX_POINT ( 'NONE', #298 ) ;
#65 = DIRECTION ( 'NONE',  ( -0.000000000000000000, -0.000000000000000000, -1.000000000000000000 ) ) ;
#66 = TOROIDAL_SURFACE ( 'NONE', #241, 0.9000000000000000222, 0.2000000000000000111 ) ;
#67 = DIRECTION ( 'NONE',  ( -0.000000000000000000, -0.000000000000000000, -1.000000000000000000 ) ) ;
#68 = CC_DESIGN_PERSON_AND_ORGANIZATION_ASSIGNMENT ( #148, #268, ( #73 ) ) ;
#69 = CARTESIAN_POINT ( 'NONE',  ( 0.000000000000000000, 0.000000000000000000, 1.500000000000000000 ) ) ;
#70 = APPROVAL_ROLE ( '' ) ;
#71 = CC_DESIGN_PERSON_AND_ORGANIZATION_ASSIGNMENT ( #194, #171, ( #116 ) ) ;
#72 = MECHANICAL_CONTEXT ( 'NONE', #254, 'mechanical' ) ;
#73 = PRODUCT ( 'a5e0', 'a5e0', '', ( #72 ) ) ;
#74 = CIRCLE ( 'NONE', #144, 0.9000000000000000222 ) ;
#75 = EDGE_CURVE ( 'NONE', #230, #8, #91, .T. ) ;
#76 = APPROVAL_PERSON_ORGANIZATION ( #120, #100, #70 ) ;
#77 = CIRCLE ( 'NONE', #306, 1.500000000000000222 ) ;
#78 = CARTESIAN_POINT ( 'NONE',  ( 0.9000000000000000222, 0.000000000000000000, 1.500000000000003553 ) ) ;
#79 = CARTESIAN_POINT ( 'NONE',  ( 1.500000000000000222, 1.836970198721030181E-16, 1.500000000000000000 ) ) ;
#80 = LOCAL_TIME ( 12, 23, 25.00000000000000000, #264 ) ;
#81 = APPLICATION_CONTEXT ( 'configuration controlled 3d designs of mechanical parts and assemblies' ) ;
#82 = DIRECTION ( 'NONE',  ( 0.000000000000000000, 0.000000000000000000, 1.000000000000000000 ) ) ;
#83 = CARTESIAN_POINT ( 'NONE',  ( 0.000000000000000000, 0.000000000000000000, 161.5000000000000000 ) ) ;
#84 = ORIENTED_EDGE ( 'NONE', *, *, #291, .F. ) ;
#85 = DIRECTION ( 'NONE',  ( -1.000000000000000000, 0.000000000000000000, 0.000000000000000000 ) ) ;
#86 = VERTEX_POINT ( 'NONE', #78 ) ;
#87 = CARTESIAN_POINT ( 'NONE',  ( 0.000000000000000000, 0.000000000000000000, 1.700000000000007061 ) ) ;
#88 = DIRECTION ( 'NONE',  ( 0.000000000000000000, 0.000000000000000000, 1.000000000000000000 ) ) ;
#89 = CARTESIAN_POINT ( 'NONE',  ( -0.9000000000000000222, 1.102182119232617788E-16, 1.500000000000003553 ) ) ;
#90 = DIRECTION ( 'NONE',  ( 1.224646799147353207E-16, 1.000000000000000000, -0.000000000000000000 ) ) ;
#91 = CIRCLE ( 'NONE', #290, 0.6999999999999999556 ) ;
#92 = AXIS2_PLACEMENT_3D ( 'NONE', #63, #90, #1 ) ;
#93 = PERSON_AND_ORGANIZATION ( #218, #203 ) ;
#94 = COORDINATED_UNIVERSAL_TIME_OFFSET ( 1, 0, .AHEAD. ) ;
#95 = CALENDAR_DATE ( 2022, 20, 6 ) ;
#96 = TOROIDAL_SURFACE ( 'NONE', #44, 0.9000000000000000222, 0.2000000000000000111 ) ;
#97 = MANIFOLD_SOLID_BREP ( 'Zaoblit1', #172 ) ;
#98 = APPROVAL_STATUS ( 'not_yet_approved' ) ;
#99 = APPROVAL_ROLE ( '' ) ;
#100 = APPROVAL ( #173, 'NEURÈENÝ' ) ;
#101 = DIRECTION ( 'NONE',  ( -0.000000000000000000, -0.000000000000000000, -1.000000000000000000 ) ) ;
#102 = AXIS2_PLACEMENT_3D ( 'NONE', #83, #101, #38 ) ;
#103 = DIRECTION ( 'NONE',  ( 1.000000000000000000, 0.000000000000000000, -0.000000000000000000 ) ) ;
#104 = AXIS2_PLACEMENT_3D ( 'NONE', #69, #65, #165 ) ;
#105 = LINE ( 'NONE', #204, #132 ) ;
#106 = CC_DESIGN_APPROVAL ( #100, ( #160 ) ) ;
#107 = CARTESIAN_POINT ( 'NONE',  ( 0.000000000000000000, 0.000000000000000000, 161.5000000000000000 ) ) ;
#108 = ORIENTED_EDGE ( 'NONE', *, *, #135, .F. ) ;
#109 = ORIENTED_EDGE ( 'NONE', *, *, #135, .T. ) ;
#110 = CARTESIAN_POINT ( 'NONE',  ( 0.000000000000000000, 0.000000000000000000, 0.000000000000000000 ) ) ;
#111 = EDGE_LOOP ( 'NONE', ( #84, #18, #151, #158 ) ) ;
#112 = EDGE_CURVE ( 'NONE', #64, #45, #28, .T. ) ;
#113 = CARTESIAN_POINT ( 'NONE',  ( 0.000000000000000000, 0.000000000000000000, 161.5000000000000000 ) ) ;
#114 = DIRECTION ( 'NONE',  ( 1.000000000000000000, 0.000000000000000000, 0.000000000000000000 ) ) ;
#115 = PLANE ( 'NONE',  #217 ) ;
#116 = PRODUCT_DEFINITION_FORMATION_WITH_SPECIFIED_SOURCE ( 'LIBOVOLNÝ', '', #73, .NOT_KNOWN. ) ;
#117 = DIRECTION ( 'NONE',  ( 1.000000000000000000, 0.000000000000000000, 0.000000000000000000 ) ) ;
#118 = EDGE_CURVE ( 'NONE', #128, #253, #297, .T. ) ;
#119 = APPROVAL_DATE_TIME ( #295, #198 ) ;
#120 = PERSON_AND_ORGANIZATION ( #218, #203 ) ;
#121 = EDGE_CURVE ( 'NONE', #131, #127, #105, .T. ) ;
#122 = DATE_TIME_ROLE ( 'classification_date' ) ;
#123 = DATE_AND_TIME ( #95, #169 ) ;
#124 = CC_DESIGN_PERSON_AND_ORGANIZATION_ASSIGNMENT ( #267, #293, ( #116 ) ) ;
#125 = CARTESIAN_POINT ( 'NONE',  ( 0.000000000000000000, 0.000000000000000000, 1.500000000000000000 ) ) ;
#126 = DIRECTION ( 'NONE',  ( 1.000000000000000000, 0.000000000000000000, 0.000000000000000000 ) ) ;
#127 = VERTEX_POINT ( 'NONE', #276 ) ;
#128 = VERTEX_POINT ( 'NONE', #154 ) ;
#129 = ORIENTED_EDGE ( 'NONE', *, *, #234, .T. ) ;
#130 = CARTESIAN_POINT ( 'NONE',  ( 0.9000000000000000222, 0.000000000000000000, 1.700000000000007061 ) ) ;
#131 = VERTEX_POINT ( 'NONE', #249 ) ;
#132 = VECTOR ( 'NONE', #207, 1000.000000000000000 ) ;
#133 = CARTESIAN_POINT ( 'NONE',  ( 0.000000000000000000, 0.000000000000000000, 1.500000000000000000 ) ) ;
#134 = ORIENTED_EDGE ( 'NONE', *, *, #234, .F. ) ;
#135 = EDGE_CURVE ( 'NONE', #131, #128, #2, .T. ) ;
#136 = DIRECTION ( 'NONE',  ( 0.000000000000000000, 0.000000000000000000, 1.000000000000000000 ) ) ;
#137 = SECURITY_CLASSIFICATION ( '', '', #195 ) ;
#138 = FACE_OUTER_BOUND ( 'NONE', #149, .T. ) ;
#139 = DIRECTION ( 'NONE',  ( 1.000000000000000000, 0.000000000000000000, 0.000000000000000000 ) ) ;
#140 = AXIS2_PLACEMENT_3D ( 'NONE', #125, #223, #103 ) ;
#141 = VECTOR ( 'NONE', #283, 1000.000000000000000 ) ;
#142 = APPROVAL_DATE_TIME ( #123, #100 ) ;
#143 = PERSON_AND_ORGANIZATION ( #218, #203 ) ;
#144 = AXIS2_PLACEMENT_3D ( 'NONE', #133, #212, #231 ) ;
#145 = APPROVAL ( #98, 'NEURÈENÝ' ) ;
#146 = SHAPE_DEFINITION_REPRESENTATION ( #266, #55 ) ;
#147 = PERSON_AND_ORGANIZATION_ROLE ( 'classification_officer' ) ;
#148 = PERSON_AND_ORGANIZATION ( #218, #203 ) ;
#149 = EDGE_LOOP ( 'NONE', ( #228, #58 ) ) ;
#150 = APPROVAL_PERSON_ORGANIZATION ( #93, #198, #99 ) ;
#151 = ORIENTED_EDGE ( 'NONE', *, *, #202, .T. ) ;
#152 = ORIENTED_EDGE ( 'NONE', *, *, #179, .T. ) ;
#153 = DIRECTION ( 'NONE',  ( 0.000000000000000000, 0.000000000000000000, -1.000000000000000000 ) ) ;
#154 = CARTESIAN_POINT ( 'NONE',  ( 1.500000000000000222, 1.836970198721030181E-16, 1.500000000000000000 ) ) ;
#155 = CIRCLE ( 'NONE', #92, 0.2000000000000000944 ) ;
#156 = ORIENTED_EDGE ( 'NONE', *, *, #202, .F. ) ;
#157 = DIRECTION ( 'NONE',  ( 1.000000000000000000, 0.000000000000000000, 0.000000000000000000 ) ) ;
#158 = ORIENTED_EDGE ( 'NONE', *, *, #112, .T. ) ;
#159 = DIRECTION ( 'NONE',  ( 0.000000000000000000, 0.000000000000000000, 1.000000000000000000 ) ) ;
#160 = PRODUCT_DEFINITION ( 'NEZNÁMÝ', '', #116, #48 ) ;
#161 = ORIENTED_EDGE ( 'NONE', *, *, #270, .F. ) ;
#162 = UNCERTAINTY_MEASURE_WITH_UNIT (LENGTH_MEASURE( 1.000000000000000082E-05 ), #19, 'distance_accuracy_value', 'NONE');
#163 = DIRECTION ( 'NONE',  ( 1.000000000000000000, 0.000000000000000000, 0.000000000000000000 ) ) ;
#164 = DIRECTION ( 'NONE',  ( 0.000000000000000000, 0.000000000000000000, 1.000000000000000000 ) ) ;
#165 = DIRECTION ( 'NONE',  ( -1.000000000000000000, 0.000000000000000000, 0.000000000000000000 ) ) ;
#166 =( NAMED_UNIT ( * ) PLANE_ANGLE_UNIT ( ) SI_UNIT ( $, .RADIAN. ) );
#167 = CIRCLE ( 'NONE', #23, 0.6999999999999999556 ) ;
#168 = APPROVAL_ROLE ( '' ) ;
#169 = LOCAL_TIME ( 12, 23, 25.00000000000000000, #222 ) ;
#170 = APPLICATION_PROTOCOL_DEFINITION ( 'international standard', 'config_control_design', 1994, #254 ) ;
#171 = PERSON_AND_ORGANIZATION_ROLE ( 'design_supplier' ) ;
#172 = CLOSED_SHELL ( 'NONE', ( #30, #174, #22, #252, #57, #238, #6, #262, #229 ) ) ;
#173 = APPROVAL_STATUS ( 'not_yet_approved' ) ;
#174 = ADVANCED_FACE ( 'NONE', ( #251 ), #40, .T. ) ;
#175 = AXIS2_PLACEMENT_3D ( 'NONE', #227, #279, #157 ) ;
#176 = CARTESIAN_POINT ( 'NONE',  ( 0.000000000000000000, 0.000000000000000000, 1.700000000000007061 ) ) ;
#177 = APPROVAL_PERSON_ORGANIZATION ( #53, #145, #168 ) ;
#178 = DIRECTION ( 'NONE',  ( -0.000000000000000000, -0.000000000000000000, -1.000000000000000000 ) ) ;
#179 = EDGE_CURVE ( 'NONE', #253, #127, #77, .T. ) ;
#180 = ORIENTED_EDGE ( 'NONE', *, *, #215, .F. ) ;
#181 = FACE_OUTER_BOUND ( 'NONE', #210, .T. ) ;
#182 = CARTESIAN_POINT ( 'NONE',  ( -0.6999999999999999556, 0.000000000000000000, 161.5000000000000000 ) ) ;
#183 = CIRCLE ( 'NONE', #301, 1.500000000000000222 ) ;
#184 = ORIENTED_EDGE ( 'NONE', *, *, #75, .F. ) ;
#185 = CC_DESIGN_DATE_AND_TIME_ASSIGNMENT ( #216, #27, ( #160 ) ) ;
#186 = FACE_OUTER_BOUND ( 'NONE', #111, .T. ) ;
#187 =( GEOMETRIC_REPRESENTATION_CONTEXT ( 3 ) GLOBAL_UNCERTAINTY_ASSIGNED_CONTEXT ( ( #162 ) ) GLOBAL_UNIT_ASSIGNED_CONTEXT ( ( #19, #166, #211 ) ) REPRESENTATION_CONTEXT ( 'NONE', 'WORKASPACE' ) );
#188 = ORIENTED_EDGE ( 'NONE', *, *, #118, .T. ) ;
#189 = LINE ( 'NONE', #289, #141 ) ;
#190 = CYLINDRICAL_SURFACE ( 'NONE', #104, 1.500000000000000222 ) ;
#191 = LINE ( 'NONE', #209, #200 ) ;
#192 = DIRECTION ( 'NONE',  ( 1.000000000000000000, 0.000000000000000000, -0.000000000000000000 ) ) ;
#193 = AXIS2_PLACEMENT_3D ( 'NONE', #113, #257, #213 ) ;
#194 = PERSON_AND_ORGANIZATION ( #218, #203 ) ;
#195 = SECURITY_CLASSIFICATION_LEVEL ( 'unclassified' ) ;
#196 = CALENDAR_DATE ( 2022, 20, 6 ) ;
#197 = DATE_AND_TIME ( #51, #80 ) ;
#198 = APPROVAL ( #5, 'NEURÈENÝ' ) ;
#199 = ORIENTED_EDGE ( 'NONE', *, *, #121, .T. ) ;
#200 = VECTOR ( 'NONE', #288, 1000.000000000000000 ) ;
#201 = DIRECTION ( 'NONE',  ( 1.000000000000000000, 0.000000000000000000, 0.000000000000000000 ) ) ;
#202 = EDGE_CURVE ( 'NONE', #8, #64, #191, .T. ) ;
#203 = ORGANIZATION ( 'NEURÈENÝ', 'NEURÈENÝ', '' ) ;
#204 = CARTESIAN_POINT ( 'NONE',  ( -1.500000000000000222, 0.000000000000000000, 1.500000000000000000 ) ) ;
#205 = ORIENTED_EDGE ( 'NONE', *, *, #11, .F. ) ;
#206 = EDGE_LOOP ( 'NONE', ( #12, #188, #152, #39 ) ) ;
#207 = DIRECTION ( 'NONE',  ( -0.000000000000000000, -0.000000000000000000, -1.000000000000000000 ) ) ;
#208 = EDGE_LOOP ( 'NONE', ( #62, #108, #199, #273 ) ) ;
#209 = CARTESIAN_POINT ( 'NONE',  ( -0.6999999999999999556, 0.000000000000000000, 161.5000000000000000 ) ) ;
#210 = EDGE_LOOP ( 'NONE', ( #109, #15 ) ) ;
#211 =( NAMED_UNIT ( * ) SI_UNIT ( $, .STERADIAN. ) SOLID_ANGLE_UNIT ( ) );
#212 = DIRECTION ( 'NONE',  ( -0.000000000000000000, -0.000000000000000000, -1.000000000000000000 ) ) ;
#213 = DIRECTION ( 'NONE',  ( -1.000000000000000000, 0.000000000000000000, 0.000000000000000000 ) ) ;
#214 = CARTESIAN_POINT ( 'NONE',  ( 1.500000000000000222, 1.836970198721030181E-16, 0.000000000000000000 ) ) ;
#215 = EDGE_CURVE ( 'NONE', #232, #86, #74, .T. ) ;
#216 = DATE_AND_TIME ( #25, #32 ) ;
#217 = AXIS2_PLACEMENT_3D ( 'NONE', #286, #305, #46 ) ;
#218 = PERSON ( 'NEURÈENÝ', 'NEURÈENÝ', 'NEURÈENÝ', ('NEURÈENÝ'), ('NEURÈENÝ'), ('NEURÈENÝ') ) ;
#219 = CC_DESIGN_APPROVAL ( #198, ( #116 ) ) ;
#220 = DIRECTION ( 'NONE',  ( 1.000000000000000000, 0.000000000000000000, 0.000000000000000000 ) ) ;
#221 = CC_DESIGN_PERSON_AND_ORGANIZATION_ASSIGNMENT ( #143, #243, ( #160 ) ) ;
#222 = COORDINATED_UNIVERSAL_TIME_OFFSET ( 1, 0, .AHEAD. ) ;
#223 = DIRECTION ( 'NONE',  ( 0.000000000000000000, 0.000000000000000000, 1.000000000000000000 ) ) ;
#224 = EDGE_CURVE ( 'NONE', #86, #232, #278, .T. ) ;
#225 = CYLINDRICAL_SURFACE ( 'NONE', #102, 0.6999999999999999556 ) ;
#226 = CARTESIAN_POINT ( 'NONE',  ( 0.000000000000000000, 0.000000000000000000, 1.700000000000007061 ) ) ;
#227 = CARTESIAN_POINT ( 'NONE',  ( 0.000000000000000000, 0.000000000000000000, 1.500000000000000000 ) ) ;
#228 = ORIENTED_EDGE ( 'NONE', *, *, #41, .F. ) ;
#229 = ADVANCED_FACE ( 'NONE', ( #233 ), #66, .F. ) ;
#230 = VERTEX_POINT ( 'NONE', #47 ) ;
#231 = DIRECTION ( 'NONE',  ( 1.000000000000000000, 0.000000000000000000, 0.000000000000000000 ) ) ;
#232 = VERTEX_POINT ( 'NONE', #89 ) ;
#233 = FACE_OUTER_BOUND ( 'NONE', #247, .T. ) ;
#234 = EDGE_CURVE ( 'NONE', #64, #232, #155, .T. ) ;
#235 = FACE_OUTER_BOUND ( 'NONE', #208, .T. ) ;
#236 = AXIS2_PLACEMENT_3D ( 'NONE', #50, #24, #192 ) ;
#237 = DIRECTION ( 'NONE',  ( 0.000000000000000000, 0.000000000000000000, 1.000000000000000000 ) ) ;
#238 = ADVANCED_FACE ( 'NONE', ( #138 ), #115, .F. ) ;
#239 = DIRECTION ( 'NONE',  ( 0.000000000000000000, 0.000000000000000000, 1.000000000000000000 ) ) ;
#240 = COORDINATED_UNIVERSAL_TIME_OFFSET ( 1, 0, .AHEAD. ) ;
#241 = AXIS2_PLACEMENT_3D ( 'NONE', #255, #159, #163 ) ;
#242 = CALENDAR_DATE ( 2022, 20, 6 ) ;
#243 = PERSON_AND_ORGANIZATION_ROLE ( 'creator' ) ;
#244 = AXIS2_PLACEMENT_3D ( 'NONE', #281, #248, #85 ) ;
#245 = DIRECTION ( 'NONE',  ( 1.000000000000000000, 0.000000000000000000, 0.000000000000000000 ) ) ;
#246 = EDGE_LOOP ( 'NONE', ( #184, #34, #250, #156 ) ) ;
#247 = EDGE_LOOP ( 'NONE', ( #134, #161, #282, #180 ) ) ;
#248 = DIRECTION ( 'NONE',  ( -0.000000000000000000, -0.000000000000000000, -1.000000000000000000 ) ) ;
#249 = CARTESIAN_POINT ( 'NONE',  ( -1.500000000000000222, 0.000000000000000000, 1.500000000000000000 ) ) ;
#250 = ORIENTED_EDGE ( 'NONE', *, *, #270, .T. ) ;
#251 = FACE_OUTER_BOUND ( 'NONE', #246, .T. ) ;
#252 = ADVANCED_FACE ( 'NONE', ( #235 ), #190, .T. ) ;
#253 = VERTEX_POINT ( 'NONE', #214 ) ;
#254 = APPLICATION_CONTEXT ( 'configuration controlled 3d designs of mechanical parts and assemblies' ) ;
#255 = CARTESIAN_POINT ( 'NONE',  ( 0.000000000000000000, 0.000000000000000000, 1.700000000000007061 ) ) ;
#256 = EDGE_LOOP ( 'NONE', ( #275, #42 ) ) ;
#257 = DIRECTION ( 'NONE',  ( -0.000000000000000000, -0.000000000000000000, -1.000000000000000000 ) ) ;
#258 = EDGE_CURVE ( 'NONE', #8, #230, #285, .T. ) ;
#259 = CARTESIAN_POINT ( 'NONE',  ( 0.000000000000000000, 0.000000000000000000, 1.500000000000000000 ) ) ;
#260 = CC_DESIGN_APPROVAL ( #145, ( #137 ) ) ;
#261 = CARTESIAN_POINT ( 'NONE',  ( 0.000000000000000000, 0.000000000000000000, 1.500000000000000000 ) ) ;
#262 = ADVANCED_FACE ( 'NONE', ( #43 ), #17, .T. ) ;
#263 = DATE_AND_TIME ( #242, #3 ) ;
#264 = COORDINATED_UNIVERSAL_TIME_OFFSET ( 1, 0, .AHEAD. ) ;
#265 = EDGE_CURVE ( 'NONE', #128, #131, #183, .T. ) ;
#266 = PRODUCT_DEFINITION_SHAPE ( 'NONE', 'NONE',  #160 ) ;
#267 = PERSON_AND_ORGANIZATION ( #218, #203 ) ;
#268 = PERSON_AND_ORGANIZATION_ROLE ( 'design_owner' ) ;
#269 = AXIS2_PLACEMENT_3D ( 'NONE', #176, #271, #201 ) ;
#270 = EDGE_CURVE ( 'NONE', #45, #64, #167, .T. ) ;
#271 = DIRECTION ( 'NONE',  ( 0.000000000000000000, 0.000000000000000000, 1.000000000000000000 ) ) ;
#272 = LOCAL_TIME ( 12, 23, 25.00000000000000000, #292 ) ;
#273 = ORIENTED_EDGE ( 'NONE', *, *, #41, .T. ) ;
#274 = EDGE_LOOP ( 'NONE', ( #300, #299 ) ) ;
#275 = ORIENTED_EDGE ( 'NONE', *, *, #224, .T. ) ;
#276 = CARTESIAN_POINT ( 'NONE',  ( -1.500000000000000222, 0.000000000000000000, 0.000000000000000000 ) ) ;
#277 = AXIS2_PLACEMENT_3D ( 'NONE', #302, #10, #245 ) ;
#278 = CIRCLE ( 'NONE', #16, 0.9000000000000000222 ) ;
#279 = DIRECTION ( 'NONE',  ( 0.000000000000000000, 0.000000000000000000, 1.000000000000000000 ) ) ;
#280 = ORIENTED_EDGE ( 'NONE', *, *, #224, .F. ) ;
#281 = CARTESIAN_POINT ( 'NONE',  ( 0.000000000000000000, 0.000000000000000000, 1.500000000000000000 ) ) ;
#282 = ORIENTED_EDGE ( 'NONE', *, *, #11, .T. ) ;
#283 = DIRECTION ( 'NONE',  ( -0.000000000000000000, -0.000000000000000000, -1.000000000000000000 ) ) ;
#284 = CIRCLE ( 'NONE', #36, 0.2000000000000000944 ) ;
#285 = CIRCLE ( 'NONE', #61, 0.6999999999999999556 ) ;
#286 = CARTESIAN_POINT ( 'NONE',  ( 0.000000000000000000, 0.000000000000000000, 0.000000000000000000 ) ) ;
#287 = CC_DESIGN_SECURITY_CLASSIFICATION ( #137, ( #116 ) ) ;
#288 = DIRECTION ( 'NONE',  ( -0.000000000000000000, -0.000000000000000000, -1.000000000000000000 ) ) ;
#289 = CARTESIAN_POINT ( 'NONE',  ( 0.6999999999999999556, 8.572527594031471957E-17, 161.5000000000000000 ) ) ;
#290 = AXIS2_PLACEMENT_3D ( 'NONE', #107, #82, #59 ) ;
#291 = EDGE_CURVE ( 'NONE', #230, #45, #189, .T. ) ;
#292 = COORDINATED_UNIVERSAL_TIME_OFFSET ( 1, 0, .AHEAD. ) ;
#293 = PERSON_AND_ORGANIZATION_ROLE ( 'creator' ) ;
#294 = AXIS2_PLACEMENT_3D ( 'NONE', #29, #239, #220 ) ;
#295 = DATE_AND_TIME ( #196, #272 ) ;
#296 = FACE_BOUND ( 'NONE', #256, .T. ) ;
#297 = LINE ( 'NONE', #79, #14 ) ;
#298 = CARTESIAN_POINT ( 'NONE',  ( -0.6999999999999999556, 0.000000000000000000, 1.700000000000007061 ) ) ;
#299 = ORIENTED_EDGE ( 'NONE', *, *, #75, .T. ) ;
#300 = ORIENTED_EDGE ( 'NONE', *, *, #258, .T. ) ;
#301 = AXIS2_PLACEMENT_3D ( 'NONE', #261, #164, #139 ) ;
#302 = CARTESIAN_POINT ( 'NONE',  ( 0.000000000000000000, 0.000000000000000000, 0.000000000000000000 ) ) ;
#303 = ORIENTED_EDGE ( 'NONE', *, *, #112, .F. ) ;
#304 = PRODUCT_RELATED_PRODUCT_CATEGORY ( 'detail', '', ( #73 ) ) ;
#305 = DIRECTION ( 'NONE',  ( 0.000000000000000000, 0.000000000000000000, 1.000000000000000000 ) ) ;
#306 = AXIS2_PLACEMENT_3D ( 'NONE', #110, #88, #20 ) ;
#307 = CARTESIAN_POINT ( 'NONE',  ( 0.000000000000000000, 0.000000000000000000, 161.5000000000000000 ) ) ;
ENDSEC;
END-ISO-10303-21;
