ISO-10303-21;
HEADER;
FILE_DESCRIPTION (( 'STEP AP203' ),
    '1' );
FILE_NAME ('31bd.STEP',
    '2022-06-20T10:14:48',
    ( '' ),
    ( '' ),
    'SwSTEP 2.0',
    'SolidWorks 2019',
    '' );
FILE_SCHEMA (( 'CONFIG_CONTROL_DESIGN' ));
ENDSEC;

DATA;
#1 = LINE ( 'NONE', #25, #200 ) ;
#2 = CC_DESIGN_PERSON_AND_ORGANIZATION_ASSIGNMENT ( #271, #117, ( #286 ) ) ;
#3 = DIRECTION ( 'NONE',  ( 0.000000000000000000, 0.000000000000000000, 1.000000000000000000 ) ) ;
#4 = LOCAL_TIME ( 12, 14, 48.00000000000000000, #79 ) ;
#5 = CARTESIAN_POINT ( 'NONE',  ( 3.000000000000000444, 3.673940397442060361E-16, 0.000000000000000000 ) ) ;
#6 = CIRCLE ( 'NONE', #294, 0.2000000000000000944 ) ;
#7 = DIRECTION ( 'NONE',  ( 1.000000000000000000, 0.000000000000000000, 0.000000000000000000 ) ) ;
#8 = CARTESIAN_POINT ( 'NONE',  ( 0.000000000000000000, 0.000000000000000000, 3.000000000000000000 ) ) ;
#9 = DATE_AND_TIME ( #168, #253 ) ;
#10 = CC_DESIGN_APPROVAL ( #223, ( #286 ) ) ;
#11 = CARTESIAN_POINT ( 'NONE',  ( -1.500000000000000222, 0.000000000000000000, 403.0000000000000000 ) ) ;
#12 = ORIENTED_EDGE ( 'NONE', *, *, #87, .F. ) ;
#13 = APPLICATION_PROTOCOL_DEFINITION ( 'international standard', 'config_control_design', 1994, #69 ) ;
#14 = PERSON ( 'NEURÈENÝ', 'NEURÈENÝ', 'NEURÈENÝ', ('NEURÈENÝ'), ('NEURÈENÝ'), ('NEURÈENÝ') ) ;
#15 = APPLICATION_CONTEXT ( 'configuration controlled 3d designs of mechanical parts and assemblies' ) ;
#16 = SECURITY_CLASSIFICATION_LEVEL ( 'unclassified' ) ;
#17 = LINE ( 'NONE', #152, #176 ) ;
#18 = ORIENTED_EDGE ( 'NONE', *, *, #305, .T. ) ;
#19 = ORIENTED_EDGE ( 'NONE', *, *, #207, .F. ) ;
#20 = ORIENTED_EDGE ( 'NONE', *, *, #180, .F. ) ;
#21 = CC_DESIGN_SECURITY_CLASSIFICATION ( #34, ( #76 ) ) ;
#22 = EDGE_CURVE ( 'NONE', #232, #246, #51, .T. ) ;
#23 = CARTESIAN_POINT ( 'NONE',  ( -1.500000000000000222, 0.000000000000000000, 3.199999999999980638 ) ) ;
#24 = CARTESIAN_POINT ( 'NONE',  ( 0.000000000000000000, 0.000000000000000000, 403.0000000000000000 ) ) ;
#25 = CARTESIAN_POINT ( 'NONE',  ( 3.000000000000000444, 3.673940397442060361E-16, 3.000000000000000000 ) ) ;
#26 = DIRECTION ( 'NONE',  ( -0.000000000000000000, -0.000000000000000000, -1.000000000000000000 ) ) ;
#27 = CIRCLE ( 'NONE', #259, 1.700000000000000400 ) ;
#28 = EDGE_CURVE ( 'NONE', #208, #188, #114, .T. ) ;
#29 = DIRECTION ( 'NONE',  ( 1.000000000000000000, 0.000000000000000000, 0.000000000000000000 ) ) ;
#30 = ADVANCED_BREP_SHAPE_REPRESENTATION ( '31bd', ( #204, #61 ), #107 ) ;
#31 = DIRECTION ( 'NONE',  ( 0.000000000000000000, 0.000000000000000000, 1.000000000000000000 ) ) ;
#32 = ORIENTED_EDGE ( 'NONE', *, *, #52, .T. ) ;
#33 = CIRCLE ( 'NONE', #46, 3.000000000000000444 ) ;
#34 = SECURITY_CLASSIFICATION ( '', '', #16 ) ;
#35 = DIRECTION ( 'NONE',  ( -0.000000000000000000, -0.000000000000000000, -1.000000000000000000 ) ) ;
#36 = FACE_OUTER_BOUND ( 'NONE', #125, .T. ) ;
#37 = DIRECTION ( 'NONE',  ( -1.000000000000000000, 0.000000000000000000, 0.000000000000000000 ) ) ;
#38 = CIRCLE ( 'NONE', #297, 1.500000000000000222 ) ;
#39 = PERSON_AND_ORGANIZATION ( #14, #236 ) ;
#40 = ORIENTED_EDGE ( 'NONE', *, *, #243, .F. ) ;
#41 = CALENDAR_DATE ( 2022, 20, 6 ) ;
#42 = EDGE_LOOP ( 'NONE', ( #104, #175 ) ) ;
#43 = ORIENTED_EDGE ( 'NONE', *, *, #180, .T. ) ;
#44 = DIRECTION ( 'NONE',  ( -0.000000000000000000, -0.000000000000000000, -1.000000000000000000 ) ) ;
#45 = ORIENTED_EDGE ( 'NONE', *, *, #52, .F. ) ;
#46 = AXIS2_PLACEMENT_3D ( 'NONE', #187, #291, #7 ) ;
#47 = LOCAL_TIME ( 12, 14, 48.00000000000000000, #226 ) ;
#48 = DIRECTION ( 'NONE',  ( 0.000000000000000000, 0.000000000000000000, -1.000000000000000000 ) ) ;
#49 = DIRECTION ( 'NONE',  ( 1.000000000000000000, 0.000000000000000000, 0.000000000000000000 ) ) ;
#50 = DIRECTION ( 'NONE',  ( 0.000000000000000000, 0.000000000000000000, 1.000000000000000000 ) ) ;
#51 = CIRCLE ( 'NONE', #258, 1.500000000000000222 ) ;
#52 = EDGE_CURVE ( 'NONE', #306, #232, #17, .T. ) ;
#53 = FACE_OUTER_BOUND ( 'NONE', #42, .T. ) ;
#54 = DIRECTION ( 'NONE',  ( 1.000000000000000000, 0.000000000000000000, -0.000000000000000000 ) ) ;
#55 = ADVANCED_FACE ( 'NONE', ( #173 ), #103, .T. ) ;
#56 = COORDINATED_UNIVERSAL_TIME_OFFSET ( 1, 0, .AHEAD. ) ;
#57 = CIRCLE ( 'NONE', #234, 0.2000000000000000944 ) ;
#58 = DIRECTION ( 'NONE',  ( -0.000000000000000000, -0.000000000000000000, -1.000000000000000000 ) ) ;
#59 = PERSON_AND_ORGANIZATION ( #14, #236 ) ;
#60 = MECHANICAL_CONTEXT ( 'NONE', #69, 'mechanical' ) ;
#61 = AXIS2_PLACEMENT_3D ( 'NONE', #222, #31, #164 ) ;
#62 = ORIENTED_EDGE ( 'NONE', *, *, #112, .T. ) ;
#63 = DATE_AND_TIME ( #142, #47 ) ;
#64 = APPROVAL ( #77, 'NEURÈENÝ' ) ;
#65 = DIRECTION ( 'NONE',  ( -1.000000000000000000, 0.000000000000000000, 0.000000000000000000 ) ) ;
#66 = FACE_BOUND ( 'NONE', #221, .T. ) ;
#67 = CARTESIAN_POINT ( 'NONE',  ( 0.000000000000000000, 0.000000000000000000, 0.000000000000000000 ) ) ;
#68 = ORIENTED_EDGE ( 'NONE', *, *, #195, .F. ) ;
#69 = APPLICATION_CONTEXT ( 'configuration controlled 3d designs of mechanical parts and assemblies' ) ;
#70 = PLANE ( 'NONE',  #151 ) ;
#71 = CARTESIAN_POINT ( 'NONE',  ( 0.000000000000000000, 0.000000000000000000, 3.000000000000000000 ) ) ;
#72 = EDGE_CURVE ( 'NONE', #171, #188, #83, .T. ) ;
#73 = PLANE ( 'NONE',  #219 ) ;
#74 = DIRECTION ( 'NONE',  ( 1.000000000000000000, 0.000000000000000000, 0.000000000000000000 ) ) ;
#75 = DIRECTION ( 'NONE',  ( -0.000000000000000000, -0.000000000000000000, -1.000000000000000000 ) ) ;
#76 = PRODUCT_DEFINITION_FORMATION_WITH_SPECIFIED_SOURCE ( 'LIBOVOLNÝ', '', #153, .NOT_KNOWN. ) ;
#77 = APPROVAL_STATUS ( 'not_yet_approved' ) ;
#78 = CC_DESIGN_PERSON_AND_ORGANIZATION_ASSIGNMENT ( #59, #99, ( #153 ) ) ;
#79 = COORDINATED_UNIVERSAL_TIME_OFFSET ( 1, 0, .AHEAD. ) ;
#80 = AXIS2_PLACEMENT_3D ( 'NONE', #288, #75, #238 ) ;
#81 = ORIENTED_EDGE ( 'NONE', *, *, #185, .F. ) ;
#82 = APPROVAL_DATE_TIME ( #9, #64 ) ;
#83 = LINE ( 'NONE', #148, #278 ) ;
#84 = DIRECTION ( 'NONE',  ( -1.000000000000000000, 1.224646799147353207E-16, 0.000000000000000000 ) ) ;
#85 = ORIENTED_EDGE ( 'NONE', *, *, #300, .T. ) ;
#86 = ORIENTED_EDGE ( 'NONE', *, *, #72, .T. ) ;
#87 = EDGE_CURVE ( 'NONE', #232, #146, #57, .T. ) ;
#88 = CARTESIAN_POINT ( 'NONE',  ( 1.500000000000000222, 1.836970198721030181E-16, 3.199999999999980638 ) ) ;
#89 = DIRECTION ( 'NONE',  ( 0.000000000000000000, 0.000000000000000000, 1.000000000000000000 ) ) ;
#90 = DIRECTION ( 'NONE',  ( 0.000000000000000000, 0.000000000000000000, 1.000000000000000000 ) ) ;
#91 = CARTESIAN_POINT ( 'NONE',  ( 0.000000000000000000, 0.000000000000000000, 0.000000000000000000 ) ) ;
#92 = CARTESIAN_POINT ( 'NONE',  ( 0.000000000000000000, 0.000000000000000000, 3.000000000000000000 ) ) ;
#93 = CC_DESIGN_APPROVAL ( #64, ( #76 ) ) ;
#94 = CARTESIAN_POINT ( 'NONE',  ( 0.000000000000000000, 0.000000000000000000, 403.0000000000000000 ) ) ;
#95 = CALENDAR_DATE ( 2022, 20, 6 ) ;
#96 = CLOSED_SHELL ( 'NONE', ( #250, #295, #274, #218, #98, #174, #55, #213, #122 ) ) ;
#97 = TOROIDAL_SURFACE ( 'NONE', #216, 1.700000000000000400, 0.2000000000000000111 ) ;
#98 = ADVANCED_FACE ( 'NONE', ( #66, #128 ), #233, .T. ) ;
#99 = PERSON_AND_ORGANIZATION_ROLE ( 'design_owner' ) ;
#100 = APPROVAL_DATE_TIME ( #63, #267 ) ;
#101 = EDGE_LOOP ( 'NONE', ( #260, #307, #32, #206 ) ) ;
#102 = PERSON_AND_ORGANIZATION ( #14, #236 ) ;
#103 = CYLINDRICAL_SURFACE ( 'NONE', #240, 1.500000000000000222 ) ;
#104 = ORIENTED_EDGE ( 'NONE', *, *, #155, .F. ) ;
#105 = ORIENTED_EDGE ( 'NONE', *, *, #87, .T. ) ;
#106 = CARTESIAN_POINT ( 'NONE',  ( -1.700000000000000400, 2.081899558550500773E-16, 3.199999999999980638 ) ) ;
#107 =( GEOMETRIC_REPRESENTATION_CONTEXT ( 3 ) GLOBAL_UNCERTAINTY_ASSIGNED_CONTEXT ( ( #160 ) ) GLOBAL_UNIT_ASSIGNED_CONTEXT ( ( #118, #224, #220 ) ) REPRESENTATION_CONTEXT ( 'NONE', 'WORKASPACE' ) );
#108 = CC_DESIGN_APPROVAL ( #267, ( #34 ) ) ;
#109 = CC_DESIGN_PERSON_AND_ORGANIZATION_ASSIGNMENT ( #202, #147, ( #34 ) ) ;
#110 = CARTESIAN_POINT ( 'NONE',  ( 1.700000000000000400, 0.000000000000000000, 3.199999999999980638 ) ) ;
#111 = DIRECTION ( 'NONE',  ( 0.000000000000000000, 0.000000000000000000, 1.000000000000000000 ) ) ;
#112 = EDGE_CURVE ( 'NONE', #272, #306, #190, .T. ) ;
#113 = CARTESIAN_POINT ( 'NONE',  ( 0.000000000000000000, 0.000000000000000000, 3.000000000000000000 ) ) ;
#114 = CIRCLE ( 'NONE', #149, 3.000000000000000444 ) ;
#115 = DIRECTION ( 'NONE',  ( 0.000000000000000000, 0.000000000000000000, 1.000000000000000000 ) ) ;
#116 = APPROVAL_STATUS ( 'not_yet_approved' ) ;
#117 = PERSON_AND_ORGANIZATION_ROLE ( 'creator' ) ;
#118 =( LENGTH_UNIT ( ) NAMED_UNIT ( * ) SI_UNIT ( .MILLI., .METRE. ) );
#119 = ORIENTED_EDGE ( 'NONE', *, *, #22, .F. ) ;
#120 = AXIS2_PLACEMENT_3D ( 'NONE', #94, #276, #140 ) ;
#121 = APPROVAL_ROLE ( '' ) ;
#122 = ADVANCED_FACE ( 'NONE', ( #186 ), #97, .F. ) ;
#123 = CARTESIAN_POINT ( 'NONE',  ( 0.000000000000000000, 0.000000000000000000, 3.199999999999980638 ) ) ;
#124 = SHAPE_DEFINITION_REPRESENTATION ( #193, #30 ) ;
#125 = EDGE_LOOP ( 'NONE', ( #129, #18, #301, #45 ) ) ;
#126 = ORIENTED_EDGE ( 'NONE', *, *, #72, .F. ) ;
#127 = EDGE_CURVE ( 'NONE', #150, #146, #239, .T. ) ;
#128 = FACE_OUTER_BOUND ( 'NONE', #225, .T. ) ;
#129 = ORIENTED_EDGE ( 'NONE', *, *, #112, .F. ) ;
#130 = LOCAL_TIME ( 12, 14, 48.00000000000000000, #56 ) ;
#131 = CARTESIAN_POINT ( 'NONE',  ( 0.000000000000000000, 0.000000000000000000, 3.199999999999980638 ) ) ;
#132 = DIRECTION ( 'NONE',  ( 0.000000000000000000, 0.000000000000000000, 1.000000000000000000 ) ) ;
#133 = FACE_OUTER_BOUND ( 'NONE', #283, .T. ) ;
#134 = DIRECTION ( 'NONE',  ( 1.000000000000000000, 0.000000000000000000, -0.000000000000000000 ) ) ;
#135 = CARTESIAN_POINT ( 'NONE',  ( 0.000000000000000000, 0.000000000000000000, 3.000000000000000000 ) ) ;
#136 = APPLICATION_PROTOCOL_DEFINITION ( 'international standard', 'config_control_design', 1994, #15 ) ;
#137 = ORIENTED_EDGE ( 'NONE', *, *, #28, .T. ) ;
#138 = CARTESIAN_POINT ( 'NONE',  ( 0.000000000000000000, 0.000000000000000000, 3.000000000000000000 ) ) ;
#139 = DATE_AND_TIME ( #244, #4 ) ;
#140 = DIRECTION ( 'NONE',  ( -1.000000000000000000, 0.000000000000000000, 0.000000000000000000 ) ) ;
#141 = EDGE_CURVE ( 'NONE', #306, #272, #263, .T. ) ;
#142 = CALENDAR_DATE ( 2022, 20, 6 ) ;
#143 = AXIS2_PLACEMENT_3D ( 'NONE', #138, #35, #37 ) ;
#144 = ORIENTED_EDGE ( 'NONE', *, *, #127, .F. ) ;
#145 = PERSON_AND_ORGANIZATION_ROLE ( 'design_supplier' ) ;
#146 = VERTEX_POINT ( 'NONE', #181 ) ;
#147 = PERSON_AND_ORGANIZATION_ROLE ( 'classification_officer' ) ;
#148 = CARTESIAN_POINT ( 'NONE',  ( -3.000000000000000444, 0.000000000000000000, 3.000000000000000000 ) ) ;
#149 = AXIS2_PLACEMENT_3D ( 'NONE', #67, #227, #230 ) ;
#150 = VERTEX_POINT ( 'NONE', #292 ) ;
#151 = AXIS2_PLACEMENT_3D ( 'NONE', #156, #90, #54 ) ;
#152 = CARTESIAN_POINT ( 'NONE',  ( -1.500000000000000222, 0.000000000000000000, 403.0000000000000000 ) ) ;
#153 = PRODUCT ( '31bd', '31bd', '', ( #60 ) ) ;
#154 = ORIENTED_EDGE ( 'NONE', *, *, #155, .T. ) ;
#155 = EDGE_CURVE ( 'NONE', #188, #208, #33, .T. ) ;
#156 = CARTESIAN_POINT ( 'NONE',  ( 0.000000000000000000, 0.000000000000000000, 403.0000000000000000 ) ) ;
#157 = APPROVAL_PERSON_ORGANIZATION ( #277, #64, #217 ) ;
#158 = CARTESIAN_POINT ( 'NONE',  ( 0.000000000000000000, 0.000000000000000000, 3.199999999999980638 ) ) ;
#159 = FACE_OUTER_BOUND ( 'NONE', #201, .T. ) ;
#160 = UNCERTAINTY_MEASURE_WITH_UNIT (LENGTH_MEASURE( 1.000000000000000082E-05 ), #118, 'distance_accuracy_value', 'NONE');
#161 = DIRECTION ( 'NONE',  ( 1.000000000000000000, 0.000000000000000000, 0.000000000000000000 ) ) ;
#162 = CC_DESIGN_PERSON_AND_ORGANIZATION_ASSIGNMENT ( #256, #281, ( #76 ) ) ;
#163 = CARTESIAN_POINT ( 'NONE',  ( -3.000000000000000444, 0.000000000000000000, 3.000000000000000000 ) ) ;
#164 = DIRECTION ( 'NONE',  ( 1.000000000000000000, 0.000000000000000000, 0.000000000000000000 ) ) ;
#165 = APPROVAL_ROLE ( '' ) ;
#166 = PRODUCT_RELATED_PRODUCT_CATEGORY ( 'detail', '', ( #153 ) ) ;
#167 = DIRECTION ( 'NONE',  ( 1.000000000000000000, 0.000000000000000000, 0.000000000000000000 ) ) ;
#168 = CALENDAR_DATE ( 2022, 20, 6 ) ;
#169 = DIRECTION ( 'NONE',  ( -0.000000000000000000, -0.000000000000000000, -1.000000000000000000 ) ) ;
#170 = AXIS2_PLACEMENT_3D ( 'NONE', #8, #111, #134 ) ;
#171 = VERTEX_POINT ( 'NONE', #163 ) ;
#172 = DATE_AND_TIME ( #41, #231 ) ;
#173 = FACE_OUTER_BOUND ( 'NONE', #101, .T. ) ;
#174 = ADVANCED_FACE ( 'NONE', ( #53 ), #73, .F. ) ;
#175 = ORIENTED_EDGE ( 'NONE', *, *, #28, .F. ) ;
#176 = VECTOR ( 'NONE', #261, 1000.000000000000000 ) ;
#177 = CC_DESIGN_DATE_AND_TIME_ASSIGNMENT ( #172, #199, ( #34 ) ) ;
#178 = ORIENTED_EDGE ( 'NONE', *, *, #207, .T. ) ;
#179 = EDGE_LOOP ( 'NONE', ( #119, #105, #144, #40 ) ) ;
#180 = EDGE_CURVE ( 'NONE', #262, #208, #1, .T. ) ;
#181 = CARTESIAN_POINT ( 'NONE',  ( -1.700000000000000400, 2.081899558550500773E-16, 2.999999999999990674 ) ) ;
#182 = DIRECTION ( 'NONE',  ( 1.000000000000000000, 0.000000000000000000, 0.000000000000000000 ) ) ;
#183 = APPROVAL_PERSON_ORGANIZATION ( #39, #267, #121 ) ;
#184 = DIRECTION ( 'NONE',  ( 1.000000000000000000, 0.000000000000000000, 0.000000000000000000 ) ) ;
#185 = EDGE_CURVE ( 'NONE', #246, #232, #38, .T. ) ;
#186 = FACE_OUTER_BOUND ( 'NONE', #254, .T. ) ;
#187 = CARTESIAN_POINT ( 'NONE',  ( 0.000000000000000000, 0.000000000000000000, 0.000000000000000000 ) ) ;
#188 = VERTEX_POINT ( 'NONE', #242 ) ;
#189 = APPROVAL_DATE_TIME ( #194, #223 ) ;
#190 = CIRCLE ( 'NONE', #268, 1.500000000000000222 ) ;
#191 = PERSON_AND_ORGANIZATION ( #14, #236 ) ;
#192 = VECTOR ( 'NONE', #58, 1000.000000000000000 ) ;
#193 = PRODUCT_DEFINITION_SHAPE ( 'NONE', 'NONE',  #286 ) ;
#194 = DATE_AND_TIME ( #95, #130 ) ;
#195 = EDGE_CURVE ( 'NONE', #262, #171, #229, .T. ) ;
#196 = COORDINATED_UNIVERSAL_TIME_OFFSET ( 1, 0, .AHEAD. ) ;
#197 = DIRECTION ( 'NONE',  ( 1.000000000000000000, 0.000000000000000000, 0.000000000000000000 ) ) ;
#198 = AXIS2_PLACEMENT_3D ( 'NONE', #24, #89, #182 ) ;
#199 = DATE_TIME_ROLE ( 'classification_date' ) ;
#200 = VECTOR ( 'NONE', #270, 1000.000000000000000 ) ;
#201 = EDGE_LOOP ( 'NONE', ( #20, #19, #86, #154 ) ) ;
#202 = PERSON_AND_ORGANIZATION ( #14, #236 ) ;
#203 = DIRECTION ( 'NONE',  ( -0.000000000000000000, -0.000000000000000000, -1.000000000000000000 ) ) ;
#204 = MANIFOLD_SOLID_BREP ( 'Zaoblit1', #96 ) ;
#205 = CC_DESIGN_PERSON_AND_ORGANIZATION_ASSIGNMENT ( #102, #145, ( #76 ) ) ;
#206 = ORIENTED_EDGE ( 'NONE', *, *, #22, .T. ) ;
#207 = EDGE_CURVE ( 'NONE', #171, #262, #212, .T. ) ;
#208 = VERTEX_POINT ( 'NONE', #5 ) ;
#209 = DIRECTION ( 'NONE',  ( 0.000000000000000000, -1.000000000000000000, 0.000000000000000000 ) ) ;
#210 = DIRECTION ( 'NONE',  ( 0.000000000000000000, 0.000000000000000000, 1.000000000000000000 ) ) ;
#211 = DIRECTION ( 'NONE',  ( 0.000000000000000000, 0.000000000000000000, 1.000000000000000000 ) ) ;
#212 = CIRCLE ( 'NONE', #273, 3.000000000000000444 ) ;
#213 = ADVANCED_FACE ( 'NONE', ( #133 ), #70, .T. ) ;
#214 = CARTESIAN_POINT ( 'NONE',  ( 3.000000000000000444, 3.673940397442060361E-16, 3.000000000000000000 ) ) ;
#215 = DIRECTION ( 'NONE',  ( -1.000000000000000000, 0.000000000000000000, 0.000000000000000000 ) ) ;
#216 = AXIS2_PLACEMENT_3D ( 'NONE', #158, #3, #293 ) ;
#217 = APPROVAL_ROLE ( '' ) ;
#218 = ADVANCED_FACE ( 'NONE', ( #159 ), #264, .T. ) ;
#219 = AXIS2_PLACEMENT_3D ( 'NONE', #91, #50, #265 ) ;
#220 =( NAMED_UNIT ( * ) SI_UNIT ( $, .STERADIAN. ) SOLID_ANGLE_UNIT ( ) );
#221 = EDGE_LOOP ( 'NONE', ( #285, #85 ) ) ;
#222 = CARTESIAN_POINT ( 'NONE',  ( 0.000000000000000000, 0.000000000000000000, 0.000000000000000000 ) ) ;
#223 = APPROVAL ( #116, 'NEURÈENÝ' ) ;
#224 =( NAMED_UNIT ( * ) PLANE_ANGLE_UNIT ( ) SI_UNIT ( $, .RADIAN. ) );
#225 = EDGE_LOOP ( 'NONE', ( #178, #280 ) ) ;
#226 = COORDINATED_UNIVERSAL_TIME_OFFSET ( 1, 0, .AHEAD. ) ;
#227 = DIRECTION ( 'NONE',  ( 0.000000000000000000, 0.000000000000000000, 1.000000000000000000 ) ) ;
#228 = CC_DESIGN_DATE_AND_TIME_ASSIGNMENT ( #139, #296, ( #286 ) ) ;
#229 = CIRCLE ( 'NONE', #302, 3.000000000000000444 ) ;
#230 = DIRECTION ( 'NONE',  ( 1.000000000000000000, 0.000000000000000000, 0.000000000000000000 ) ) ;
#231 = LOCAL_TIME ( 12, 14, 48.00000000000000000, #196 ) ;
#232 = VERTEX_POINT ( 'NONE', #23 ) ;
#233 = PLANE ( 'NONE',  #170 ) ;
#234 = AXIS2_PLACEMENT_3D ( 'NONE', #106, #304, #84 ) ;
#235 = ORIENTED_EDGE ( 'NONE', *, *, #243, .T. ) ;
#236 = ORGANIZATION ( 'NEURÈENÝ', 'NEURÈENÝ', '' ) ;
#237 = DIRECTION ( 'NONE',  ( 0.000000000000000000, 0.000000000000000000, 1.000000000000000000 ) ) ;
#238 = DIRECTION ( 'NONE',  ( 1.000000000000000000, 0.000000000000000000, 0.000000000000000000 ) ) ;
#239 = CIRCLE ( 'NONE', #80, 1.700000000000000400 ) ;
#240 = AXIS2_PLACEMENT_3D ( 'NONE', #303, #44, #65 ) ;
#241 = FACE_OUTER_BOUND ( 'NONE', #179, .T. ) ;
#242 = CARTESIAN_POINT ( 'NONE',  ( -3.000000000000000444, 0.000000000000000000, 0.000000000000000000 ) ) ;
#243 = EDGE_CURVE ( 'NONE', #246, #150, #6, .T. ) ;
#244 = CALENDAR_DATE ( 2022, 20, 6 ) ;
#245 = CYLINDRICAL_SURFACE ( 'NONE', #120, 1.500000000000000222 ) ;
#246 = VERTEX_POINT ( 'NONE', #88 ) ;
#247 = AXIS2_PLACEMENT_3D ( 'NONE', #135, #26, #215 ) ;
#248 = CARTESIAN_POINT ( 'NONE',  ( 1.500000000000000222, 1.836970198721030181E-16, 403.0000000000000000 ) ) ;
#249 = COORDINATED_UNIVERSAL_TIME_OFFSET ( 1, 0, .AHEAD. ) ;
#250 = ADVANCED_FACE ( 'NONE', ( #241 ), #284, .F. ) ;
#251 = LINE ( 'NONE', #248, #192 ) ;
#252 = APPROVAL_STATUS ( 'not_yet_approved' ) ;
#253 = LOCAL_TIME ( 12, 14, 48.00000000000000000, #249 ) ;
#254 = EDGE_LOOP ( 'NONE', ( #12, #81, #235, #287 ) ) ;
#255 = EDGE_LOOP ( 'NONE', ( #68, #43, #137, #126 ) ) ;
#256 = PERSON_AND_ORGANIZATION ( #14, #236 ) ;
#257 = ORIENTED_EDGE ( 'NONE', *, *, #141, .T. ) ;
#258 = AXIS2_PLACEMENT_3D ( 'NONE', #123, #282, #197 ) ;
#259 = AXIS2_PLACEMENT_3D ( 'NONE', #92, #169, #167 ) ;
#260 = ORIENTED_EDGE ( 'NONE', *, *, #305, .F. ) ;
#261 = DIRECTION ( 'NONE',  ( -0.000000000000000000, -0.000000000000000000, -1.000000000000000000 ) ) ;
#262 = VERTEX_POINT ( 'NONE', #214 ) ;
#263 = CIRCLE ( 'NONE', #198, 1.500000000000000222 ) ;
#264 = CYLINDRICAL_SURFACE ( 'NONE', #247, 3.000000000000000444 ) ;
#265 = DIRECTION ( 'NONE',  ( 1.000000000000000000, 0.000000000000000000, -0.000000000000000000 ) ) ;
#266 = CARTESIAN_POINT ( 'NONE',  ( 0.000000000000000000, 0.000000000000000000, 403.0000000000000000 ) ) ;
#267 = APPROVAL ( #252, 'NEURÈENÝ' ) ;
#268 = AXIS2_PLACEMENT_3D ( 'NONE', #266, #210, #184 ) ;
#269 = CARTESIAN_POINT ( 'NONE',  ( 1.500000000000000222, 1.836970198721030181E-16, 403.0000000000000000 ) ) ;
#270 = DIRECTION ( 'NONE',  ( -0.000000000000000000, -0.000000000000000000, -1.000000000000000000 ) ) ;
#271 = PERSON_AND_ORGANIZATION ( #14, #236 ) ;
#272 = VERTEX_POINT ( 'NONE', #269 ) ;
#273 = AXIS2_PLACEMENT_3D ( 'NONE', #113, #115, #161 ) ;
#274 = ADVANCED_FACE ( 'NONE', ( #298 ), #299, .T. ) ;
#275 = DESIGN_CONTEXT ( 'detailed design', #15, 'design' ) ;
#276 = DIRECTION ( 'NONE',  ( -0.000000000000000000, -0.000000000000000000, -1.000000000000000000 ) ) ;
#277 = PERSON_AND_ORGANIZATION ( #14, #236 ) ;
#278 = VECTOR ( 'NONE', #203, 1000.000000000000000 ) ;
#279 = APPROVAL_PERSON_ORGANIZATION ( #191, #223, #165 ) ;
#280 = ORIENTED_EDGE ( 'NONE', *, *, #195, .T. ) ;
#281 = PERSON_AND_ORGANIZATION_ROLE ( 'creator' ) ;
#282 = DIRECTION ( 'NONE',  ( 0.000000000000000000, 0.000000000000000000, 1.000000000000000000 ) ) ;
#283 = EDGE_LOOP ( 'NONE', ( #257, #62 ) ) ;
#284 = TOROIDAL_SURFACE ( 'NONE', #290, 1.700000000000000400, 0.2000000000000000111 ) ;
#285 = ORIENTED_EDGE ( 'NONE', *, *, #127, .T. ) ;
#286 = PRODUCT_DEFINITION ( 'NEZNÁMÝ', '', #76, #275 ) ;
#287 = ORIENTED_EDGE ( 'NONE', *, *, #300, .F. ) ;
#288 = CARTESIAN_POINT ( 'NONE',  ( 0.000000000000000000, 0.000000000000000000, 3.000000000000000000 ) ) ;
#289 = CARTESIAN_POINT ( 'NONE',  ( 0.000000000000000000, 0.000000000000000000, 3.199999999999980638 ) ) ;
#290 = AXIS2_PLACEMENT_3D ( 'NONE', #131, #237, #74 ) ;
#291 = DIRECTION ( 'NONE',  ( 0.000000000000000000, 0.000000000000000000, 1.000000000000000000 ) ) ;
#292 = CARTESIAN_POINT ( 'NONE',  ( 1.700000000000000400, 0.000000000000000000, 2.999999999999990674 ) ) ;
#293 = DIRECTION ( 'NONE',  ( 1.000000000000000000, 0.000000000000000000, 0.000000000000000000 ) ) ;
#294 = AXIS2_PLACEMENT_3D ( 'NONE', #110, #209, #48 ) ;
#295 = ADVANCED_FACE ( 'NONE', ( #36 ), #245, .T. ) ;
#296 = DATE_TIME_ROLE ( 'creation_date' ) ;
#297 = AXIS2_PLACEMENT_3D ( 'NONE', #289, #211, #49 ) ;
#298 = FACE_OUTER_BOUND ( 'NONE', #255, .T. ) ;
#299 = CYLINDRICAL_SURFACE ( 'NONE', #143, 3.000000000000000444 ) ;
#300 = EDGE_CURVE ( 'NONE', #146, #150, #27, .T. ) ;
#301 = ORIENTED_EDGE ( 'NONE', *, *, #185, .T. ) ;
#302 = AXIS2_PLACEMENT_3D ( 'NONE', #71, #132, #29 ) ;
#303 = CARTESIAN_POINT ( 'NONE',  ( 0.000000000000000000, 0.000000000000000000, 403.0000000000000000 ) ) ;
#304 = DIRECTION ( 'NONE',  ( 1.224646799147353207E-16, 1.000000000000000000, -0.000000000000000000 ) ) ;
#305 = EDGE_CURVE ( 'NONE', #272, #246, #251, .T. ) ;
#306 = VERTEX_POINT ( 'NONE', #11 ) ;
#307 = ORIENTED_EDGE ( 'NONE', *, *, #141, .F. ) ;
ENDSEC;
END-ISO-10303-21;
