ISO-10303-21;
HEADER;
FILE_DESCRIPTION (( 'STEP AP203' ),
    '1' );
FILE_NAME ('9a41.STEP',
    '2022-06-20T09:31:07',
    ( '' ),
    ( '' ),
    'SwSTEP 2.0',
    'SolidWorks 2019',
    '' );
FILE_SCHEMA (( 'CONFIG_CONTROL_DESIGN' ));
ENDSEC;

DATA;
#1 = EDGE_LOOP ( 'NONE', ( #36, #233 ) ) ;
#2 = DIRECTION ( 'NONE',  ( -0.000000000000000000, -0.000000000000000000, -1.000000000000000000 ) ) ;
#3 = CIRCLE ( 'NONE', #109, 6.099999999999999645 ) ;
#4 = FACE_BOUND ( 'NONE', #38, .T. ) ;
#5 = ADVANCED_FACE ( 'NONE', ( #22 ), #153, .T. ) ;
#6 = DIRECTION ( 'NONE',  ( -0.000000000000000000, -0.000000000000000000, -1.000000000000000000 ) ) ;
#7 = CARTESIAN_POINT ( 'NONE',  ( 0.000000000000000000, 0.000000000000000000, 7.200000000000011724 ) ) ;
#8 = DIRECTION ( 'NONE',  ( 1.000000000000000000, 0.000000000000000000, -0.000000000000000000 ) ) ;
#9 = ADVANCED_FACE ( 'NONE', ( #15 ), #193, .F. ) ;
#10 = APPROVAL_STATUS ( 'not_yet_approved' ) ;
#11 = DIRECTION ( 'NONE',  ( 1.000000000000000000, 0.000000000000000000, 0.000000000000000000 ) ) ;
#12 = MANIFOLD_SOLID_BREP ( 'Zaoblit1', #163 ) ;
#13 = DIRECTION ( 'NONE',  ( 1.000000000000000000, 0.000000000000000000, 0.000000000000000000 ) ) ;
#14 = CALENDAR_DATE ( 2022, 20, 6 ) ;
#15 = FACE_OUTER_BOUND ( 'NONE', #88, .T. ) ;
#16 = EDGE_CURVE ( 'NONE', #304, #284, #53, .T. ) ;
#17 = AXIS2_PLACEMENT_3D ( 'NONE', #101, #55, #57 ) ;
#18 = DIRECTION ( 'NONE',  ( 1.000000000000000000, 0.000000000000000000, 0.000000000000000000 ) ) ;
#19 = APPROVAL_DATE_TIME ( #234, #296 ) ;
#20 = FACE_OUTER_BOUND ( 'NONE', #301, .T. ) ;
#21 = EDGE_LOOP ( 'NONE', ( #33, #258, #84, #183 ) ) ;
#22 = FACE_OUTER_BOUND ( 'NONE', #157, .T. ) ;
#23 = PLANE ( 'NONE',  #257 ) ;
#24 = DIRECTION ( 'NONE',  ( 1.000000000000000000, 0.000000000000000000, 0.000000000000000000 ) ) ;
#25 = PLANE ( 'NONE',  #220 ) ;
#26 = CC_DESIGN_APPROVAL ( #272, ( #124 ) ) ;
#27 = CARTESIAN_POINT ( 'NONE',  ( 0.000000000000000000, 0.000000000000000000, 7.200000000000011724 ) ) ;
#28 = CARTESIAN_POINT ( 'NONE',  ( 0.000000000000000000, 0.000000000000000000, 7.000000000000000000 ) ) ;
#29 = EDGE_CURVE ( 'NONE', #211, #184, #175, .T. ) ;
#30 = FACE_OUTER_BOUND ( 'NONE', #256, .T. ) ;
#31 = AXIS2_PLACEMENT_3D ( 'NONE', #214, #169, #164 ) ;
#32 = APPLICATION_PROTOCOL_DEFINITION ( 'international standard', 'config_control_design', 1994, #47 ) ;
#33 = ORIENTED_EDGE ( 'NONE', *, *, #263, .F. ) ;
#34 =( NAMED_UNIT ( * ) PLANE_ANGLE_UNIT ( ) SI_UNIT ( $, .RADIAN. ) );
#35 = COORDINATED_UNIVERSAL_TIME_OFFSET ( 1, 0, .AHEAD. ) ;
#36 = ORIENTED_EDGE ( 'NONE', *, *, #225, .T. ) ;
#37 = ADVANCED_FACE ( 'NONE', ( #20 ), #262, .T. ) ;
#38 = EDGE_LOOP ( 'NONE', ( #154, #130 ) ) ;
#39 = DATE_TIME_ROLE ( 'classification_date' ) ;
#40 = LOCAL_TIME ( 11, 31, 7.000000000000000000, #35 ) ;
#41 = VERTEX_POINT ( 'NONE', #117 ) ;
#42 = APPROVAL_ROLE ( '' ) ;
#43 = ORIENTED_EDGE ( 'NONE', *, *, #16, .T. ) ;
#44 = SECURITY_CLASSIFICATION_LEVEL ( 'unclassified' ) ;
#45 = ORIENTED_EDGE ( 'NONE', *, *, #197, .F. ) ;
#46 = CARTESIAN_POINT ( 'NONE',  ( 6.099999999999999645, 7.470345474798854293E-16, 207.0000000000000284 ) ) ;
#47 = APPLICATION_CONTEXT ( 'configuration controlled 3d designs of mechanical parts and assemblies' ) ;
#48 = EDGE_CURVE ( 'NONE', #135, #69, #132, .T. ) ;
#49 = CARTESIAN_POINT ( 'NONE',  ( 9.000000000000000000, 1.102182119232617714E-15, 7.000000000000000000 ) ) ;
#50 = CARTESIAN_POINT ( 'NONE',  ( 0.000000000000000000, 0.000000000000000000, 7.200000000000011724 ) ) ;
#51 = DIRECTION ( 'NONE',  ( 0.000000000000000000, 0.000000000000000000, 1.000000000000000000 ) ) ;
#52 = DIRECTION ( 'NONE',  ( -1.000000000000000000, 1.224646799147353454E-16, 0.000000000000000000 ) ) ;
#53 = CIRCLE ( 'NONE', #64, 9.000000000000000000 ) ;
#54 = CIRCLE ( 'NONE', #229, 9.000000000000000000 ) ;
#55 = DIRECTION ( 'NONE',  ( -0.000000000000000000, -0.000000000000000000, -1.000000000000000000 ) ) ;
#56 = DESIGN_CONTEXT ( 'detailed design', #47, 'design' ) ;
#57 = DIRECTION ( 'NONE',  ( -1.000000000000000000, 0.000000000000000000, 0.000000000000000000 ) ) ;
#58 = APPLICATION_PROTOCOL_DEFINITION ( 'international standard', 'config_control_design', 1994, #185 ) ;
#59 = ORIENTED_EDGE ( 'NONE', *, *, #125, .F. ) ;
#60 = EDGE_CURVE ( 'NONE', #186, #135, #144, .T. ) ;
#61 = ORIENTED_EDGE ( 'NONE', *, *, #125, .T. ) ;
#62 = DATE_AND_TIME ( #137, #40 ) ;
#63 = EDGE_LOOP ( 'NONE', ( #204, #209 ) ) ;
#64 = AXIS2_PLACEMENT_3D ( 'NONE', #253, #158, #113 ) ;
#65 = PERSON ( 'NEURÈENÝ', 'NEURÈENÝ', 'NEURÈENÝ', ('NEURÈENÝ'), ('NEURÈENÝ'), ('NEURÈENÝ') ) ;
#66 = PERSON_AND_ORGANIZATION ( #65, #264 ) ;
#67 = DIRECTION ( 'NONE',  ( 0.000000000000000000, 0.000000000000000000, 1.000000000000000000 ) ) ;
#68 = COORDINATED_UNIVERSAL_TIME_OFFSET ( 1, 0, .AHEAD. ) ;
#69 = VERTEX_POINT ( 'NONE', #265 ) ;
#70 = DIRECTION ( 'NONE',  ( 1.000000000000000000, 0.000000000000000000, 0.000000000000000000 ) ) ;
#71 = CARTESIAN_POINT ( 'NONE',  ( 0.000000000000000000, 0.000000000000000000, 0.000000000000000000 ) ) ;
#72 = ADVANCED_FACE ( 'NONE', ( #288 ), #201, .F. ) ;
#73 = CARTESIAN_POINT ( 'NONE',  ( 6.099999999999999645, 7.470345474798854293E-16, 207.0000000000000284 ) ) ;
#74 = DIRECTION ( 'NONE',  ( 1.000000000000000000, 0.000000000000000000, 0.000000000000000000 ) ) ;
#75 = DIRECTION ( 'NONE',  ( 0.000000000000000000, 0.000000000000000000, 1.000000000000000000 ) ) ;
#76 = CARTESIAN_POINT ( 'NONE',  ( 0.000000000000000000, 0.000000000000000000, 7.000000000000000000 ) ) ;
#77 = AXIS2_PLACEMENT_3D ( 'NONE', #140, #192, #118 ) ;
#78 = DATE_AND_TIME ( #247, #273 ) ;
#79 = CC_DESIGN_APPROVAL ( #296, ( #177 ) ) ;
#80 = DIRECTION ( 'NONE',  ( -1.000000000000000000, 0.000000000000000000, 0.000000000000000000 ) ) ;
#81 = CARTESIAN_POINT ( 'NONE',  ( -6.299999999999998934, 7.715274834628324392E-16, 7.200000000000011724 ) ) ;
#82 = ORIENTED_EDGE ( 'NONE', *, *, #160, .F. ) ;
#83 = PERSON_AND_ORGANIZATION ( #65, #264 ) ;
#84 = ORIENTED_EDGE ( 'NONE', *, *, #179, .T. ) ;
#85 = CC_DESIGN_DATE_AND_TIME_ASSIGNMENT ( #62, #39, ( #177 ) ) ;
#86 = VERTEX_POINT ( 'NONE', #121 ) ;
#87 = AXIS2_PLACEMENT_3D ( 'NONE', #81, #248, #52 ) ;
#88 = EDGE_LOOP ( 'NONE', ( #161, #103, #205, #235 ) ) ;
#89 = ORIENTED_EDGE ( 'NONE', *, *, #141, .F. ) ;
#90 = CC_DESIGN_PERSON_AND_ORGANIZATION_ASSIGNMENT ( #180, #176, ( #177 ) ) ;
#91 = CARTESIAN_POINT ( 'NONE',  ( 0.000000000000000000, 0.000000000000000000, 207.0000000000000284 ) ) ;
#92 = VECTOR ( 'NONE', #6, 1000.000000000000000 ) ;
#93 = FACE_OUTER_BOUND ( 'NONE', #138, .T. ) ;
#94 = AXIS2_PLACEMENT_3D ( 'NONE', #162, #2, #74 ) ;
#95 = DIRECTION ( 'NONE',  ( 0.000000000000000000, 0.000000000000000000, 1.000000000000000000 ) ) ;
#96 = DIRECTION ( 'NONE',  ( 0.000000000000000000, 0.000000000000000000, 1.000000000000000000 ) ) ;
#97 = AXIS2_PLACEMENT_3D ( 'NONE', #228, #67, #18 ) ;
#98 = CARTESIAN_POINT ( 'NONE',  ( 0.000000000000000000, 0.000000000000000000, 0.000000000000000000 ) ) ;
#99 = CIRCLE ( 'NONE', #87, 0.1999999999999996503 ) ;
#100 = APPROVAL_ROLE ( '' ) ;
#101 = CARTESIAN_POINT ( 'NONE',  ( 0.000000000000000000, 0.000000000000000000, 7.000000000000000000 ) ) ;
#102 = COORDINATED_UNIVERSAL_TIME_OFFSET ( 1, 0, .AHEAD. ) ;
#103 = ORIENTED_EDGE ( 'NONE', *, *, #263, .T. ) ;
#104 =( GEOMETRIC_REPRESENTATION_CONTEXT ( 3 ) GLOBAL_UNCERTAINTY_ASSIGNED_CONTEXT ( ( #298 ) ) GLOBAL_UNIT_ASSIGNED_CONTEXT ( ( #105, #34, #299 ) ) REPRESENTATION_CONTEXT ( 'NONE', 'WORKASPACE' ) );
#105 =( LENGTH_UNIT ( ) NAMED_UNIT ( * ) SI_UNIT ( .MILLI., .METRE. ) );
#106 = EDGE_CURVE ( 'NONE', #186, #41, #282, .T. ) ;
#107 = ADVANCED_BREP_SHAPE_REPRESENTATION ( '9a41', ( #12, #289 ), #104 ) ;
#108 = VERTEX_POINT ( 'NONE', #139 ) ;
#109 = AXIS2_PLACEMENT_3D ( 'NONE', #50, #268, #167 ) ;
#110 = CC_DESIGN_APPROVAL ( #112, ( #222 ) ) ;
#111 = CALENDAR_DATE ( 2022, 20, 6 ) ;
#112 = APPROVAL ( #10, 'NEURÈENÝ' ) ;
#113 = DIRECTION ( 'NONE',  ( 1.000000000000000000, 0.000000000000000000, 0.000000000000000000 ) ) ;
#114 = ORIENTED_EDGE ( 'NONE', *, *, #171, .T. ) ;
#115 = ORIENTED_EDGE ( 'NONE', *, *, #60, .T. ) ;
#116 = DIRECTION ( 'NONE',  ( -0.000000000000000000, -0.000000000000000000, -1.000000000000000000 ) ) ;
#117 = CARTESIAN_POINT ( 'NONE',  ( -6.099999999999999645, 0.000000000000000000, 207.0000000000000284 ) ) ;
#118 = DIRECTION ( 'NONE',  ( 1.000000000000000000, 0.000000000000000000, 0.000000000000000000 ) ) ;
#119 = DIRECTION ( 'NONE',  ( 1.000000000000000000, 0.000000000000000000, -0.000000000000000000 ) ) ;
#120 = APPROVAL_PERSON_ORGANIZATION ( #159, #296, #42 ) ;
#121 = CARTESIAN_POINT ( 'NONE',  ( 6.299999999999998934, 0.000000000000000000, 7.000000000000006217 ) ) ;
#122 = FACE_OUTER_BOUND ( 'NONE', #63, .T. ) ;
#123 = AXIS2_PLACEMENT_3D ( 'NONE', #7, #217, #166 ) ;
#124 = PRODUCT_DEFINITION_FORMATION_WITH_SPECIFIED_SOURCE ( 'LIBOVOLNÝ', '', #223, .NOT_KNOWN. ) ;
#125 = EDGE_CURVE ( 'NONE', #41, #69, #242, .T. ) ;
#126 = DIRECTION ( 'NONE',  ( -0.000000000000000000, -0.000000000000000000, -1.000000000000000000 ) ) ;
#127 = PERSON_AND_ORGANIZATION_ROLE ( 'creator' ) ;
#128 = CARTESIAN_POINT ( 'NONE',  ( 0.000000000000000000, 0.000000000000000000, 207.0000000000000284 ) ) ;
#129 = EDGE_CURVE ( 'NONE', #69, #135, #3, .T. ) ;
#130 = ORIENTED_EDGE ( 'NONE', *, *, #218, .T. ) ;
#131 = VECTOR ( 'NONE', #216, 1000.000000000000000 ) ;
#132 = CIRCLE ( 'NONE', #123, 6.099999999999999645 ) ;
#133 = LOCAL_TIME ( 11, 31, 7.000000000000000000, #102 ) ;
#134 = DATE_AND_TIME ( #230, #269 ) ;
#135 = VERTEX_POINT ( 'NONE', #243 ) ;
#136 = ORIENTED_EDGE ( 'NONE', *, *, #60, .F. ) ;
#137 = CALENDAR_DATE ( 2022, 20, 6 ) ;
#138 = EDGE_LOOP ( 'NONE', ( #260, #300 ) ) ;
#139 = CARTESIAN_POINT ( 'NONE',  ( -6.299999999999998934, 7.715274834628324392E-16, 7.000000000000006217 ) ) ;
#140 = CARTESIAN_POINT ( 'NONE',  ( 0.000000000000000000, 0.000000000000000000, 207.0000000000000284 ) ) ;
#141 = EDGE_CURVE ( 'NONE', #211, #304, #142, .T. ) ;
#142 = LINE ( 'NONE', #49, #173 ) ;
#143 = APPROVAL_PERSON_ORGANIZATION ( #156, #272, #305 ) ;
#144 = LINE ( 'NONE', #46, #131 ) ;
#145 = DIRECTION ( 'NONE',  ( -0.000000000000000000, -0.000000000000000000, -1.000000000000000000 ) ) ;
#146 = CC_DESIGN_PERSON_AND_ORGANIZATION_ASSIGNMENT ( #66, #202, ( #124 ) ) ;
#147 = PERSON_AND_ORGANIZATION_ROLE ( 'design_owner' ) ;
#148 = LOCAL_TIME ( 11, 31, 7.000000000000000000, #182 ) ;
#149 = PERSON_AND_ORGANIZATION ( #65, #264 ) ;
#150 = ORIENTED_EDGE ( 'NONE', *, *, #160, .T. ) ;
#151 = DIRECTION ( 'NONE',  ( 0.000000000000000000, 0.000000000000000000, 1.000000000000000000 ) ) ;
#152 = MECHANICAL_CONTEXT ( 'NONE', #185, 'mechanical' ) ;
#153 = CYLINDRICAL_SURFACE ( 'NONE', #188, 6.099999999999999645 ) ;
#154 = ORIENTED_EDGE ( 'NONE', *, *, #286, .T. ) ;
#155 = PRODUCT_RELATED_PRODUCT_CATEGORY ( 'detail', '', ( #223 ) ) ;
#156 = PERSON_AND_ORGANIZATION ( #65, #264 ) ;
#157 = EDGE_LOOP ( 'NONE', ( #306, #115, #285, #59 ) ) ;
#158 = DIRECTION ( 'NONE',  ( 0.000000000000000000, 0.000000000000000000, 1.000000000000000000 ) ) ;
#159 = PERSON_AND_ORGANIZATION ( #65, #264 ) ;
#160 = EDGE_CURVE ( 'NONE', #184, #284, #219, .T. ) ;
#161 = ORIENTED_EDGE ( 'NONE', *, *, #129, .F. ) ;
#162 = CARTESIAN_POINT ( 'NONE',  ( 0.000000000000000000, 0.000000000000000000, 7.000000000000000000 ) ) ;
#163 = CLOSED_SHELL ( 'NONE', ( #9, #5, #37, #254, #231, #165, #237, #267, #72 ) ) ;
#164 = DIRECTION ( 'NONE',  ( 0.000000000000000000, 0.000000000000000000, -1.000000000000000000 ) ) ;
#165 = ADVANCED_FACE ( 'NONE', ( #122 ), #23, .F. ) ;
#166 = DIRECTION ( 'NONE',  ( 1.000000000000000000, 0.000000000000000000, 0.000000000000000000 ) ) ;
#167 = DIRECTION ( 'NONE',  ( 1.000000000000000000, 0.000000000000000000, 0.000000000000000000 ) ) ;
#168 = AXIS2_PLACEMENT_3D ( 'NONE', #270, #51, #70 ) ;
#169 = DIRECTION ( 'NONE',  ( 0.000000000000000000, -1.000000000000000000, 0.000000000000000000 ) ) ;
#170 = PERSON_AND_ORGANIZATION ( #65, #264 ) ;
#171 = EDGE_CURVE ( 'NONE', #284, #304, #54, .T. ) ;
#172 = PLANE ( 'NONE',  #278 ) ;
#173 = VECTOR ( 'NONE', #145, 1000.000000000000000 ) ;
#174 = DIRECTION ( 'NONE',  ( -0.000000000000000000, -0.000000000000000000, -1.000000000000000000 ) ) ;
#175 = CIRCLE ( 'NONE', #261, 9.000000000000000000 ) ;
#176 = PERSON_AND_ORGANIZATION_ROLE ( 'classification_officer' ) ;
#177 = SECURITY_CLASSIFICATION ( '', '', #44 ) ;
#178 = ORIENTED_EDGE ( 'NONE', *, *, #129, .T. ) ;
#179 = EDGE_CURVE ( 'NONE', #135, #86, #307, .T. ) ;
#180 = PERSON_AND_ORGANIZATION ( #65, #264 ) ;
#181 = DIRECTION ( 'NONE',  ( 0.000000000000000000, 0.000000000000000000, 1.000000000000000000 ) ) ;
#182 = COORDINATED_UNIVERSAL_TIME_OFFSET ( 1, 0, .AHEAD. ) ;
#183 = ORIENTED_EDGE ( 'NONE', *, *, #218, .F. ) ;
#184 = VERTEX_POINT ( 'NONE', #291 ) ;
#185 = APPLICATION_CONTEXT ( 'configuration controlled 3d designs of mechanical parts and assemblies' ) ;
#186 = VERTEX_POINT ( 'NONE', #73 ) ;
#187 = DIRECTION ( 'NONE',  ( -0.000000000000000000, -0.000000000000000000, -1.000000000000000000 ) ) ;
#188 = AXIS2_PLACEMENT_3D ( 'NONE', #252, #116, #226 ) ;
#189 = CIRCLE ( 'NONE', #94, 6.299999999999998934 ) ;
#190 = CARTESIAN_POINT ( 'NONE',  ( 0.000000000000000000, 0.000000000000000000, 7.000000000000000000 ) ) ;
#191 = DIRECTION ( 'NONE',  ( -1.000000000000000000, 0.000000000000000000, 0.000000000000000000 ) ) ;
#192 = DIRECTION ( 'NONE',  ( 0.000000000000000000, 0.000000000000000000, 1.000000000000000000 ) ) ;
#193 = TOROIDAL_SURFACE ( 'NONE', #97, 6.299999999999998934, 0.2000000000000000111 ) ;
#194 = AXIS2_PLACEMENT_3D ( 'NONE', #91, #238, #24 ) ;
#195 = CARTESIAN_POINT ( 'NONE',  ( 0.000000000000000000, 0.000000000000000000, 0.000000000000000000 ) ) ;
#196 = COORDINATED_UNIVERSAL_TIME_OFFSET ( 1, 0, .AHEAD. ) ;
#197 = EDGE_CURVE ( 'NONE', #184, #211, #246, .T. ) ;
#198 = FACE_OUTER_BOUND ( 'NONE', #1, .T. ) ;
#199 = CIRCLE ( 'NONE', #194, 6.099999999999999645 ) ;
#200 = AXIS2_PLACEMENT_3D ( 'NONE', #76, #126, #13 ) ;
#201 = TOROIDAL_SURFACE ( 'NONE', #245, 6.299999999999998934, 0.2000000000000000111 ) ;
#202 = PERSON_AND_ORGANIZATION_ROLE ( 'creator' ) ;
#203 = CC_DESIGN_DATE_AND_TIME_ASSIGNMENT ( #280, #251, ( #222 ) ) ;
#204 = ORIENTED_EDGE ( 'NONE', *, *, #171, .F. ) ;
#205 = ORIENTED_EDGE ( 'NONE', *, *, #286, .F. ) ;
#206 = ORIENTED_EDGE ( 'NONE', *, *, #141, .T. ) ;
#207 = CC_DESIGN_PERSON_AND_ORGANIZATION_ASSIGNMENT ( #170, #147, ( #223 ) ) ;
#208 = APPROVAL_STATUS ( 'not_yet_approved' ) ;
#209 = ORIENTED_EDGE ( 'NONE', *, *, #16, .F. ) ;
#210 = VECTOR ( 'NONE', #239, 1000.000000000000000 ) ;
#211 = VERTEX_POINT ( 'NONE', #212 ) ;
#212 = CARTESIAN_POINT ( 'NONE',  ( 9.000000000000000000, 1.102182119232617714E-15, 7.000000000000000000 ) ) ;
#213 = CC_DESIGN_PERSON_AND_ORGANIZATION_ASSIGNMENT ( #83, #283, ( #124 ) ) ;
#214 = CARTESIAN_POINT ( 'NONE',  ( 6.299999999999998934, 0.000000000000000000, 7.200000000000011724 ) ) ;
#215 = AXIS2_PLACEMENT_3D ( 'NONE', #276, #174, #80 ) ;
#216 = DIRECTION ( 'NONE',  ( -0.000000000000000000, -0.000000000000000000, -1.000000000000000000 ) ) ;
#217 = DIRECTION ( 'NONE',  ( 0.000000000000000000, 0.000000000000000000, 1.000000000000000000 ) ) ;
#218 = EDGE_CURVE ( 'NONE', #108, #86, #189, .T. ) ;
#219 = LINE ( 'NONE', #292, #210 ) ;
#220 = AXIS2_PLACEMENT_3D ( 'NONE', #190, #290, #119 ) ;
#221 = PERSON_AND_ORGANIZATION ( #65, #264 ) ;
#222 = PRODUCT_DEFINITION ( 'NEZNÁMÝ', '', #124, #56 ) ;
#223 = PRODUCT ( '9a41', '9a41', '', ( #152 ) ) ;
#224 = CYLINDRICAL_SURFACE ( 'NONE', #215, 6.099999999999999645 ) ;
#225 = EDGE_CURVE ( 'NONE', #41, #186, #199, .T. ) ;
#226 = DIRECTION ( 'NONE',  ( -1.000000000000000000, 0.000000000000000000, 0.000000000000000000 ) ) ;
#227 = AXIS2_PLACEMENT_3D ( 'NONE', #28, #187, #191 ) ;
#228 = CARTESIAN_POINT ( 'NONE',  ( 0.000000000000000000, 0.000000000000000000, 7.200000000000011724 ) ) ;
#229 = AXIS2_PLACEMENT_3D ( 'NONE', #98, #75, #287 ) ;
#230 = CALENDAR_DATE ( 2022, 20, 6 ) ;
#231 = ADVANCED_FACE ( 'NONE', ( #4, #93 ), #25, .T. ) ;
#232 = ORIENTED_EDGE ( 'NONE', *, *, #225, .F. ) ;
#233 = ORIENTED_EDGE ( 'NONE', *, *, #106, .T. ) ;
#234 = DATE_AND_TIME ( #111, #148 ) ;
#235 = ORIENTED_EDGE ( 'NONE', *, *, #179, .F. ) ;
#236 = CARTESIAN_POINT ( 'NONE',  ( -6.099999999999999645, 0.000000000000000000, 207.0000000000000284 ) ) ;
#237 = ADVANCED_FACE ( 'NONE', ( #244 ), #224, .T. ) ;
#238 = DIRECTION ( 'NONE',  ( 0.000000000000000000, 0.000000000000000000, 1.000000000000000000 ) ) ;
#239 = DIRECTION ( 'NONE',  ( -0.000000000000000000, -0.000000000000000000, -1.000000000000000000 ) ) ;
#240 = CIRCLE ( 'NONE', #200, 6.299999999999998934 ) ;
#241 = PRODUCT_DEFINITION_SHAPE ( 'NONE', 'NONE',  #222 ) ;
#242 = LINE ( 'NONE', #236, #92 ) ;
#243 = CARTESIAN_POINT ( 'NONE',  ( 6.099999999999999645, 7.470345474798854293E-16, 7.200000000000011724 ) ) ;
#244 = FACE_OUTER_BOUND ( 'NONE', #279, .T. ) ;
#245 = AXIS2_PLACEMENT_3D ( 'NONE', #27, #96, #266 ) ;
#246 = CIRCLE ( 'NONE', #168, 9.000000000000000000 ) ;
#247 = CALENDAR_DATE ( 2022, 20, 6 ) ;
#248 = DIRECTION ( 'NONE',  ( 1.224646799147353207E-16, 1.000000000000000000, -0.000000000000000000 ) ) ;
#249 = CARTESIAN_POINT ( 'NONE',  ( 9.000000000000000000, 1.102182119232617714E-15, 0.000000000000000000 ) ) ;
#250 = APPROVAL_PERSON_ORGANIZATION ( #221, #112, #100 ) ;
#251 = DATE_TIME_ROLE ( 'creation_date' ) ;
#252 = CARTESIAN_POINT ( 'NONE',  ( 0.000000000000000000, 0.000000000000000000, 207.0000000000000284 ) ) ;
#253 = CARTESIAN_POINT ( 'NONE',  ( 0.000000000000000000, 0.000000000000000000, 0.000000000000000000 ) ) ;
#254 = ADVANCED_FACE ( 'NONE', ( #30 ), #295, .T. ) ;
#255 = APPROVAL_DATE_TIME ( #134, #272 ) ;
#256 = EDGE_LOOP ( 'NONE', ( #89, #45, #150, #114 ) ) ;
#257 = AXIS2_PLACEMENT_3D ( 'NONE', #71, #95, #8 ) ;
#258 = ORIENTED_EDGE ( 'NONE', *, *, #48, .F. ) ;
#259 = APPROVAL_STATUS ( 'not_yet_approved' ) ;
#260 = ORIENTED_EDGE ( 'NONE', *, *, #197, .T. ) ;
#261 = AXIS2_PLACEMENT_3D ( 'NONE', #302, #181, #281 ) ;
#262 = CYLINDRICAL_SURFACE ( 'NONE', #227, 9.000000000000000000 ) ;
#263 = EDGE_CURVE ( 'NONE', #69, #108, #99, .T. ) ;
#264 = ORGANIZATION ( 'NEURÈENÝ', 'NEURÈENÝ', '' ) ;
#265 = CARTESIAN_POINT ( 'NONE',  ( -6.099999999999999645, 0.000000000000000000, 7.200000000000011724 ) ) ;
#266 = DIRECTION ( 'NONE',  ( 1.000000000000000000, 0.000000000000000000, 0.000000000000000000 ) ) ;
#267 = ADVANCED_FACE ( 'NONE', ( #198 ), #172, .T. ) ;
#268 = DIRECTION ( 'NONE',  ( 0.000000000000000000, 0.000000000000000000, 1.000000000000000000 ) ) ;
#269 = LOCAL_TIME ( 11, 31, 7.000000000000000000, #68 ) ;
#270 = CARTESIAN_POINT ( 'NONE',  ( 0.000000000000000000, 0.000000000000000000, 7.000000000000000000 ) ) ;
#271 = CARTESIAN_POINT ( 'NONE',  ( -9.000000000000000000, 0.000000000000000000, 0.000000000000000000 ) ) ;
#272 = APPROVAL ( #208, 'NEURÈENÝ' ) ;
#273 = LOCAL_TIME ( 11, 31, 7.000000000000000000, #196 ) ;
#274 = APPROVAL_DATE_TIME ( #78, #112 ) ;
#275 = ORIENTED_EDGE ( 'NONE', *, *, #29, .F. ) ;
#276 = CARTESIAN_POINT ( 'NONE',  ( 0.000000000000000000, 0.000000000000000000, 207.0000000000000284 ) ) ;
#277 = SHAPE_DEFINITION_REPRESENTATION ( #241, #107 ) ;
#278 = AXIS2_PLACEMENT_3D ( 'NONE', #128, #151, #297 ) ;
#279 = EDGE_LOOP ( 'NONE', ( #136, #232, #61, #178 ) ) ;
#280 = DATE_AND_TIME ( #14, #133 ) ;
#281 = DIRECTION ( 'NONE',  ( 1.000000000000000000, 0.000000000000000000, 0.000000000000000000 ) ) ;
#282 = CIRCLE ( 'NONE', #77, 6.099999999999999645 ) ;
#283 = PERSON_AND_ORGANIZATION_ROLE ( 'design_supplier' ) ;
#284 = VERTEX_POINT ( 'NONE', #271 ) ;
#285 = ORIENTED_EDGE ( 'NONE', *, *, #48, .T. ) ;
#286 = EDGE_CURVE ( 'NONE', #86, #108, #240, .T. ) ;
#287 = DIRECTION ( 'NONE',  ( 1.000000000000000000, 0.000000000000000000, 0.000000000000000000 ) ) ;
#288 = FACE_OUTER_BOUND ( 'NONE', #21, .T. ) ;
#289 = AXIS2_PLACEMENT_3D ( 'NONE', #195, #294, #11 ) ;
#290 = DIRECTION ( 'NONE',  ( 0.000000000000000000, 0.000000000000000000, 1.000000000000000000 ) ) ;
#291 = CARTESIAN_POINT ( 'NONE',  ( -9.000000000000000000, 0.000000000000000000, 7.000000000000000000 ) ) ;
#292 = CARTESIAN_POINT ( 'NONE',  ( -9.000000000000000000, 0.000000000000000000, 7.000000000000000000 ) ) ;
#293 = CC_DESIGN_SECURITY_CLASSIFICATION ( #177, ( #124 ) ) ;
#294 = DIRECTION ( 'NONE',  ( 0.000000000000000000, 0.000000000000000000, 1.000000000000000000 ) ) ;
#295 = CYLINDRICAL_SURFACE ( 'NONE', #17, 9.000000000000000000 ) ;
#296 = APPROVAL ( #259, 'NEURÈENÝ' ) ;
#297 = DIRECTION ( 'NONE',  ( 1.000000000000000000, 0.000000000000000000, -0.000000000000000000 ) ) ;
#298 = UNCERTAINTY_MEASURE_WITH_UNIT (LENGTH_MEASURE( 1.000000000000000082E-05 ), #105, 'distance_accuracy_value', 'NONE');
#299 =( NAMED_UNIT ( * ) SI_UNIT ( $, .STERADIAN. ) SOLID_ANGLE_UNIT ( ) );
#300 = ORIENTED_EDGE ( 'NONE', *, *, #29, .T. ) ;
#301 = EDGE_LOOP ( 'NONE', ( #275, #206, #43, #82 ) ) ;
#302 = CARTESIAN_POINT ( 'NONE',  ( 0.000000000000000000, 0.000000000000000000, 7.000000000000000000 ) ) ;
#303 = CC_DESIGN_PERSON_AND_ORGANIZATION_ASSIGNMENT ( #149, #127, ( #222 ) ) ;
#304 = VERTEX_POINT ( 'NONE', #249 ) ;
#305 = APPROVAL_ROLE ( '' ) ;
#306 = ORIENTED_EDGE ( 'NONE', *, *, #106, .F. ) ;
#307 = CIRCLE ( 'NONE', #31, 0.1999999999999996503 ) ;
ENDSEC;
END-ISO-10303-21;
