ISO-10303-21;
HEADER;
FILE_DESCRIPTION (( 'STEP AP203' ),
    '1' );
FILE_NAME ('db6d.STEP',
    '2022-06-28T13:45:56',
    ( '' ),
    ( '' ),
    'SwSTEP 2.0',
    'SolidWorks 2019',
    '' );
FILE_SCHEMA (( 'CONFIG_CONTROL_DESIGN' ));
ENDSEC;

DATA;
#1 = PERSON_AND_ORGANIZATION ( #271, #247 ) ;
#2 = VERTEX_POINT ( 'NONE', #34 ) ;
#3 = LOCAL_TIME ( 15, 45, 56.00000000000000000, #57 ) ;
#4 = FACE_BOUND ( 'NONE', #58, .T. ) ;
#5 = COORDINATED_UNIVERSAL_TIME_OFFSET ( 1, 0, .AHEAD. ) ;
#6 = ORIENTED_EDGE ( 'NONE', *, *, #236, .F. ) ;
#7 = PERSON_AND_ORGANIZATION ( #271, #247 ) ;
#8 = ORIENTED_EDGE ( 'NONE', *, *, #299, .F. ) ;
#9 = APPROVAL_STATUS ( 'not_yet_approved' ) ;
#10 = CIRCLE ( 'NONE', #91, 0.2000000000000000944 ) ;
#11 = APPLICATION_CONTEXT ( 'configuration controlled 3d designs of mechanical parts and assemblies' ) ;
#12 = VERTEX_POINT ( 'NONE', #176 ) ;
#13 = EDGE_CURVE ( 'NONE', #297, #2, #193, .T. ) ;
#14 = AXIS2_PLACEMENT_3D ( 'NONE', #144, #143, #266 ) ;
#15 = CARTESIAN_POINT ( 'NONE',  ( 0.000000000000000000, 0.000000000000000000, 151.1999999999999886 ) ) ;
#16 = CARTESIAN_POINT ( 'NONE',  ( 0.000000000000000000, 0.000000000000000000, 1.400000000000012346 ) ) ;
#17 = MANIFOLD_SOLID_BREP ( 'Zaoblit1', #87 ) ;
#18 = FACE_OUTER_BOUND ( 'NONE', #223, .T. ) ;
#19 = TOROIDAL_SURFACE ( 'NONE', #264, 0.6999999999999999556, 0.2000000000000000111 ) ;
#20 = FACE_OUTER_BOUND ( 'NONE', #150, .T. ) ;
#21 = CC_DESIGN_PERSON_AND_ORGANIZATION_ASSIGNMENT ( #192, #290, ( #130 ) ) ;
#22 = FACE_OUTER_BOUND ( 'NONE', #231, .T. ) ;
#23 = CARTESIAN_POINT ( 'NONE',  ( 0.000000000000000000, 0.000000000000000000, 1.199999999999999956 ) ) ;
#24 = AXIS2_PLACEMENT_3D ( 'NONE', #157, #274, #73 ) ;
#25 = DIRECTION ( 'NONE',  ( 0.000000000000000000, 0.000000000000000000, 1.000000000000000000 ) ) ;
#26 = EDGE_LOOP ( 'NONE', ( #260, #148, #108, #56 ) ) ;
#27 = MECHANICAL_CONTEXT ( 'NONE', #11, 'mechanical' ) ;
#28 = TOROIDAL_SURFACE ( 'NONE', #186, 0.6999999999999999556, 0.2000000000000000111 ) ;
#29 = CC_DESIGN_APPROVAL ( #92, ( #137 ) ) ;
#30 = ORIENTED_EDGE ( 'NONE', *, *, #128, .F. ) ;
#31 = DATE_AND_TIME ( #241, #200 ) ;
#32 = ORIENTED_EDGE ( 'NONE', *, *, #110, .T. ) ;
#33 = APPROVAL_ROLE ( '' ) ;
#34 = CARTESIAN_POINT ( 'NONE',  ( -1.250000000000000000, 0.000000000000000000, 0.000000000000000000 ) ) ;
#35 = AXIS2_PLACEMENT_3D ( 'NONE', #44, #250, #40 ) ;
#36 = CARTESIAN_POINT ( 'NONE',  ( 0.6999999999999999556, 0.000000000000000000, 1.200000000000006173 ) ) ;
#37 = EDGE_CURVE ( 'NONE', #265, #211, #301, .T. ) ;
#38 = ORIENTED_EDGE ( 'NONE', *, *, #293, .T. ) ;
#39 = DIRECTION ( 'NONE',  ( 1.000000000000000000, 0.000000000000000000, 0.000000000000000000 ) ) ;
#40 = DIRECTION ( 'NONE',  ( 1.000000000000000000, 0.000000000000000000, 0.000000000000000000 ) ) ;
#41 = CC_DESIGN_PERSON_AND_ORGANIZATION_ASSIGNMENT ( #122, #210, ( #142 ) ) ;
#42 = CIRCLE ( 'NONE', #35, 1.250000000000000000 ) ;
#43 = DIRECTION ( 'NONE',  ( 1.000000000000000000, 0.000000000000000000, 0.000000000000000000 ) ) ;
#44 = CARTESIAN_POINT ( 'NONE',  ( 0.000000000000000000, 0.000000000000000000, 1.199999999999999956 ) ) ;
#45 = PLANE ( 'NONE',  #106 ) ;
#46 = APPROVAL_PERSON_ORGANIZATION ( #288, #139, #286 ) ;
#47 = COORDINATED_UNIVERSAL_TIME_OFFSET ( 1, 0, .AHEAD. ) ;
#48 = VERTEX_POINT ( 'NONE', #36 ) ;
#49 = DIRECTION ( 'NONE',  ( 0.000000000000000000, 0.000000000000000000, 1.000000000000000000 ) ) ;
#50 = EDGE_LOOP ( 'NONE', ( #218, #74, #120, #235 ) ) ;
#51 =( NAMED_UNIT ( * ) SI_UNIT ( $, .STERADIAN. ) SOLID_ANGLE_UNIT ( ) );
#52 = LINE ( 'NONE', #240, #232 ) ;
#53 = ADVANCED_FACE ( 'NONE', ( #177 ), #132, .T. ) ;
#54 = AXIS2_PLACEMENT_3D ( 'NONE', #261, #145, #212 ) ;
#55 = CARTESIAN_POINT ( 'NONE',  ( 1.250000000000000000, 1.530808498934191571E-16, 0.000000000000000000 ) ) ;
#56 = ORIENTED_EDGE ( 'NONE', *, *, #227, .T. ) ;
#57 = COORDINATED_UNIVERSAL_TIME_OFFSET ( 1, 0, .AHEAD. ) ;
#58 = EDGE_LOOP ( 'NONE', ( #103, #100 ) ) ;
#59 = ADVANCED_FACE ( 'NONE', ( #4, #188 ), #298, .T. ) ;
#60 = CIRCLE ( 'NONE', #239, 0.6999999999999999556 ) ;
#61 = EDGE_LOOP ( 'NONE', ( #8, #32, #126, #6 ) ) ;
#62 = DIRECTION ( 'NONE',  ( 1.000000000000000000, 0.000000000000000000, -0.000000000000000000 ) ) ;
#63 = CC_DESIGN_SECURITY_CLASSIFICATION ( #137, ( #130 ) ) ;
#64 = CARTESIAN_POINT ( 'NONE',  ( -0.6999999999999999556, 8.572527594031473190E-17, 1.200000000000006173 ) ) ;
#65 = CARTESIAN_POINT ( 'NONE',  ( 0.000000000000000000, 0.000000000000000000, 0.000000000000000000 ) ) ;
#66 = EDGE_CURVE ( 'NONE', #287, #289, #306, .T. ) ;
#67 = PRODUCT_DEFINITION_SHAPE ( 'NONE', 'NONE',  #295 ) ;
#68 = CARTESIAN_POINT ( 'NONE',  ( 0.000000000000000000, 0.000000000000000000, 1.400000000000012346 ) ) ;
#69 = VECTOR ( 'NONE', #201, 1000.000000000000000 ) ;
#70 = AXIS2_PLACEMENT_3D ( 'NONE', #105, #173, #267 ) ;
#71 = CARTESIAN_POINT ( 'NONE',  ( 0.000000000000000000, 0.000000000000000000, 1.400000000000012346 ) ) ;
#72 = DESIGN_CONTEXT ( 'detailed design', #152, 'design' ) ;
#73 = DIRECTION ( 'NONE',  ( -1.000000000000000000, 1.224646799147352714E-16, 0.000000000000000000 ) ) ;
#74 = ORIENTED_EDGE ( 'NONE', *, *, #128, .T. ) ;
#75 = CC_DESIGN_PERSON_AND_ORGANIZATION_ASSIGNMENT ( #195, #243, ( #137 ) ) ;
#76 = LOCAL_TIME ( 15, 45, 56.00000000000000000, #5 ) ;
#77 = CALENDAR_DATE ( 2022, 28, 6 ) ;
#78 = CC_DESIGN_PERSON_AND_ORGANIZATION_ASSIGNMENT ( #1, #281, ( #295 ) ) ;
#79 = DIRECTION ( 'NONE',  ( 0.000000000000000000, 0.000000000000000000, 1.000000000000000000 ) ) ;
#80 = DATE_AND_TIME ( #77, #76 ) ;
#81 = ORIENTED_EDGE ( 'NONE', *, *, #113, .F. ) ;
#82 = AXIS2_PLACEMENT_3D ( 'NONE', #187, #49, #237 ) ;
#83 = DIRECTION ( 'NONE',  ( 1.000000000000000000, 0.000000000000000000, -0.000000000000000000 ) ) ;
#84 = VERTEX_POINT ( 'NONE', #262 ) ;
#85 = CALENDAR_DATE ( 2022, 28, 6 ) ;
#86 = UNCERTAINTY_MEASURE_WITH_UNIT (LENGTH_MEASURE( 1.000000000000000082E-05 ), #167, 'distance_accuracy_value', 'NONE');
#87 = CLOSED_SHELL ( 'NONE', ( #134, #53, #255, #161, #59, #121, #131, #282, #279 ) ) ;
#88 = EDGE_LOOP ( 'NONE', ( #81, #269, #133, #119 ) ) ;
#89 = CARTESIAN_POINT ( 'NONE',  ( 0.000000000000000000, 0.000000000000000000, 1.199999999999999956 ) ) ;
#90 = CYLINDRICAL_SURFACE ( 'NONE', #291, 1.250000000000000000 ) ;
#91 = AXIS2_PLACEMENT_3D ( 'NONE', #112, #114, #252 ) ;
#92 = APPROVAL ( #9, 'NEURÈENÝ' ) ;
#93 = LINE ( 'NONE', #276, #69 ) ;
#94 = CARTESIAN_POINT ( 'NONE',  ( 0.000000000000000000, 0.000000000000000000, 151.1999999999999886 ) ) ;
#95 = CIRCLE ( 'NONE', #24, 0.1999999999999999833 ) ;
#96 = CARTESIAN_POINT ( 'NONE',  ( 0.000000000000000000, 0.000000000000000000, 1.199999999999999956 ) ) ;
#97 = EDGE_CURVE ( 'NONE', #265, #2, #52, .T. ) ;
#98 = APPROVAL_STATUS ( 'not_yet_approved' ) ;
#99 = PLANE ( 'NONE',  #238 ) ;
#100 = ORIENTED_EDGE ( 'NONE', *, *, #178, .T. ) ;
#101 = APPLICATION_PROTOCOL_DEFINITION ( 'international standard', 'config_control_design', 1994, #152 ) ;
#102 = DIRECTION ( 'NONE',  ( 0.000000000000000000, 0.000000000000000000, 1.000000000000000000 ) ) ;
#103 = ORIENTED_EDGE ( 'NONE', *, *, #190, .T. ) ;
#104 = PERSON_AND_ORGANIZATION_ROLE ( 'creator' ) ;
#105 = CARTESIAN_POINT ( 'NONE',  ( 0.000000000000000000, 0.000000000000000000, 0.000000000000000000 ) ) ;
#106 = AXIS2_PLACEMENT_3D ( 'NONE', #65, #275, #256 ) ;
#107 = COORDINATED_UNIVERSAL_TIME_OFFSET ( 1, 0, .AHEAD. ) ;
#108 = ORIENTED_EDGE ( 'NONE', *, *, #236, .T. ) ;
#109 = AXIS2_PLACEMENT_3D ( 'NONE', #158, #184, #183 ) ;
#110 = EDGE_CURVE ( 'NONE', #289, #12, #278, .T. ) ;
#111 = DIRECTION ( 'NONE',  ( -0.000000000000000000, -0.000000000000000000, -1.000000000000000000 ) ) ;
#112 = CARTESIAN_POINT ( 'NONE',  ( 0.6999999999999999556, 0.000000000000000000, 1.400000000000012346 ) ) ;
#113 = EDGE_CURVE ( 'NONE', #84, #141, #95, .T. ) ;
#114 = DIRECTION ( 'NONE',  ( 0.000000000000000000, -1.000000000000000000, 0.000000000000000000 ) ) ;
#115 = LINE ( 'NONE', #280, #151 ) ;
#116 = CARTESIAN_POINT ( 'NONE',  ( 0.000000000000000000, 0.000000000000000000, 1.400000000000012346 ) ) ;
#117 = DIRECTION ( 'NONE',  ( 1.000000000000000000, 0.000000000000000000, 0.000000000000000000 ) ) ;
#118 = AXIS2_PLACEMENT_3D ( 'NONE', #153, #102, #246 ) ;
#119 = ORIENTED_EDGE ( 'NONE', *, *, #178, .F. ) ;
#120 = ORIENTED_EDGE ( 'NONE', *, *, #13, .T. ) ;
#121 = ADVANCED_FACE ( 'NONE', ( #140 ), #45, .F. ) ;
#122 = PERSON_AND_ORGANIZATION ( #271, #247 ) ;
#123 = AXIS2_PLACEMENT_3D ( 'NONE', #89, #270, #62 ) ;
#124 = EDGE_LOOP ( 'NONE', ( #221, #216 ) ) ;
#125 = CALENDAR_DATE ( 2022, 28, 6 ) ;
#126 = ORIENTED_EDGE ( 'NONE', *, *, #273, .T. ) ;
#127 = SECURITY_CLASSIFICATION_LEVEL ( 'unclassified' ) ;
#128 = EDGE_CURVE ( 'NONE', #211, #297, #115, .T. ) ;
#129 = ORIENTED_EDGE ( 'NONE', *, *, #259, .T. ) ;
#130 = PRODUCT_DEFINITION_FORMATION_WITH_SPECIFIED_SOURCE ( 'LIBOVOLNÝ', '', #142, .NOT_KNOWN. ) ;
#131 = ADVANCED_FACE ( 'NONE', ( #224 ), #300, .T. ) ;
#132 = CYLINDRICAL_SURFACE ( 'NONE', #155, 0.5000000000000000000 ) ;
#133 = ORIENTED_EDGE ( 'NONE', *, *, #214, .T. ) ;
#134 = ADVANCED_FACE ( 'NONE', ( #18 ), #28, .F. ) ;
#135 = DIRECTION ( 'NONE',  ( -0.000000000000000000, -0.000000000000000000, -1.000000000000000000 ) ) ;
#136 = CARTESIAN_POINT ( 'NONE',  ( 0.5000000000000000000, 6.123233995736766036E-17, 151.1999999999999886 ) ) ;
#137 = SECURITY_CLASSIFICATION ( '', '', #127 ) ;
#138 = CARTESIAN_POINT ( 'NONE',  ( -1.250000000000000000, 0.000000000000000000, 1.199999999999999956 ) ) ;
#139 = APPROVAL ( #98, 'NEURÈENÝ' ) ;
#140 = FACE_OUTER_BOUND ( 'NONE', #124, .T. ) ;
#141 = VERTEX_POINT ( 'NONE', #64 ) ;
#142 = PRODUCT ( 'db6d', 'db6d', '', ( #27 ) ) ;
#143 = DIRECTION ( 'NONE',  ( 0.000000000000000000, 0.000000000000000000, 1.000000000000000000 ) ) ;
#144 = CARTESIAN_POINT ( 'NONE',  ( 0.000000000000000000, 0.000000000000000000, 151.1999999999999886 ) ) ;
#145 = DIRECTION ( 'NONE',  ( 0.000000000000000000, 0.000000000000000000, 1.000000000000000000 ) ) ;
#146 = CIRCLE ( 'NONE', #296, 0.6999999999999999556 ) ;
#147 = DIRECTION ( 'NONE',  ( -0.000000000000000000, -0.000000000000000000, -1.000000000000000000 ) ) ;
#148 = ORIENTED_EDGE ( 'NONE', *, *, #66, .F. ) ;
#149 = PERSON_AND_ORGANIZATION ( #271, #247 ) ;
#150 = EDGE_LOOP ( 'NONE', ( #30, #166, #244, #38 ) ) ;
#151 = VECTOR ( 'NONE', #229, 1000.000000000000000 ) ;
#152 = APPLICATION_CONTEXT ( 'configuration controlled 3d designs of mechanical parts and assemblies' ) ;
#153 = CARTESIAN_POINT ( 'NONE',  ( 0.000000000000000000, 0.000000000000000000, 1.199999999999999956 ) ) ;
#154 = CC_DESIGN_PERSON_AND_ORGANIZATION_ASSIGNMENT ( #7, #104, ( #130 ) ) ;
#155 = AXIS2_PLACEMENT_3D ( 'NONE', #15, #111, #198 ) ;
#156 = CARTESIAN_POINT ( 'NONE',  ( 0.000000000000000000, 0.000000000000000000, 151.1999999999999886 ) ) ;
#157 = CARTESIAN_POINT ( 'NONE',  ( -0.6999999999999999556, 8.572527594031471957E-17, 1.400000000000012346 ) ) ;
#158 = CARTESIAN_POINT ( 'NONE',  ( 0.000000000000000000, 0.000000000000000000, 1.199999999999999956 ) ) ;
#159 = DIRECTION ( 'NONE',  ( 0.000000000000000000, 0.000000000000000000, 1.000000000000000000 ) ) ;
#160 = CIRCLE ( 'NONE', #283, 0.5000000000000000000 ) ;
#161 = ADVANCED_FACE ( 'NONE', ( #20 ), #90, .T. ) ;
#162 = DIRECTION ( 'NONE',  ( -1.000000000000000000, 0.000000000000000000, 0.000000000000000000 ) ) ;
#163 = DIRECTION ( 'NONE',  ( -0.000000000000000000, -0.000000000000000000, -1.000000000000000000 ) ) ;
#164 = APPROVAL_PERSON_ORGANIZATION ( #234, #202, #284 ) ;
#165 = COORDINATED_UNIVERSAL_TIME_OFFSET ( 1, 0, .AHEAD. ) ;
#166 = ORIENTED_EDGE ( 'NONE', *, *, #37, .F. ) ;
#167 =( LENGTH_UNIT ( ) NAMED_UNIT ( * ) SI_UNIT ( .MILLI., .METRE. ) );
#168 = DIRECTION ( 'NONE',  ( 1.000000000000000000, 0.000000000000000000, 0.000000000000000000 ) ) ;
#169 = DATE_AND_TIME ( #125, #257 ) ;
#170 = VECTOR ( 'NONE', #163, 1000.000000000000000 ) ;
#171 = ORIENTED_EDGE ( 'NONE', *, *, #214, .F. ) ;
#172 = CARTESIAN_POINT ( 'NONE',  ( 0.5000000000000000000, 6.123233995736766036E-17, 151.1999999999999886 ) ) ;
#173 = DIRECTION ( 'NONE',  ( 0.000000000000000000, 0.000000000000000000, 1.000000000000000000 ) ) ;
#174 = CALENDAR_DATE ( 2022, 28, 6 ) ;
#175 = APPROVAL_PERSON_ORGANIZATION ( #149, #92, #33 ) ;
#176 = CARTESIAN_POINT ( 'NONE',  ( 0.5000000000000000000, 6.123233995736766036E-17, 1.400000000000012346 ) ) ;
#177 = FACE_OUTER_BOUND ( 'NONE', #61, .T. ) ;
#178 = EDGE_CURVE ( 'NONE', #141, #48, #60, .T. ) ;
#179 = DIRECTION ( 'NONE',  ( 1.000000000000000000, 0.000000000000000000, 0.000000000000000000 ) ) ;
#180 = CYLINDRICAL_SURFACE ( 'NONE', #109, 1.250000000000000000 ) ;
#181 = CARTESIAN_POINT ( 'NONE',  ( 1.250000000000000000, 1.530808498934191571E-16, 1.199999999999999956 ) ) ;
#182 = CC_DESIGN_DATE_AND_TIME_ASSIGNMENT ( #169, #263, ( #295 ) ) ;
#183 = DIRECTION ( 'NONE',  ( -1.000000000000000000, 0.000000000000000000, 0.000000000000000000 ) ) ;
#184 = DIRECTION ( 'NONE',  ( -0.000000000000000000, -0.000000000000000000, -1.000000000000000000 ) ) ;
#185 = APPROVAL_DATE_TIME ( #80, #139 ) ;
#186 = AXIS2_PLACEMENT_3D ( 'NONE', #16, #207, #303 ) ;
#187 = CARTESIAN_POINT ( 'NONE',  ( 0.000000000000000000, 0.000000000000000000, 0.000000000000000000 ) ) ;
#188 = FACE_OUTER_BOUND ( 'NONE', #248, .T. ) ;
#189 = CARTESIAN_POINT ( 'NONE',  ( 0.000000000000000000, 0.000000000000000000, 151.1999999999999886 ) ) ;
#190 = EDGE_CURVE ( 'NONE', #48, #141, #146, .T. ) ;
#191 = ORIENTED_EDGE ( 'NONE', *, *, #37, .T. ) ;
#192 = PERSON_AND_ORGANIZATION ( #271, #247 ) ;
#193 = CIRCLE ( 'NONE', #70, 1.250000000000000000 ) ;
#194 = ORIENTED_EDGE ( 'NONE', *, *, #113, .T. ) ;
#195 = PERSON_AND_ORGANIZATION ( #271, #247 ) ;
#196 = CC_DESIGN_DATE_AND_TIME_ASSIGNMENT ( #294, #219, ( #137 ) ) ;
#197 = ORIENTED_EDGE ( 'NONE', *, *, #299, .T. ) ;
#198 = DIRECTION ( 'NONE',  ( -1.000000000000000000, 0.000000000000000000, 0.000000000000000000 ) ) ;
#199 = DIRECTION ( 'NONE',  ( 0.000000000000000000, 0.000000000000000000, 1.000000000000000000 ) ) ;
#200 = LOCAL_TIME ( 15, 45, 56.00000000000000000, #165 ) ;
#201 = DIRECTION ( 'NONE',  ( -0.000000000000000000, -0.000000000000000000, -1.000000000000000000 ) ) ;
#202 = APPROVAL ( #258, 'NEURÈENÝ' ) ;
#203 = DIRECTION ( 'NONE',  ( -0.000000000000000000, -0.000000000000000000, -1.000000000000000000 ) ) ;
#204 = SHAPE_DEFINITION_REPRESENTATION ( #67, #209 ) ;
#205 = CARTESIAN_POINT ( 'NONE',  ( 0.000000000000000000, 0.000000000000000000, 1.199999999999999956 ) ) ;
#206 =( GEOMETRIC_REPRESENTATION_CONTEXT ( 3 ) GLOBAL_UNCERTAINTY_ASSIGNED_CONTEXT ( ( #86 ) ) GLOBAL_UNIT_ASSIGNED_CONTEXT ( ( #167, #233, #51 ) ) REPRESENTATION_CONTEXT ( 'NONE', 'WORKASPACE' ) );
#207 = DIRECTION ( 'NONE',  ( 0.000000000000000000, 0.000000000000000000, 1.000000000000000000 ) ) ;
#208 = APPLICATION_PROTOCOL_DEFINITION ( 'international standard', 'config_control_design', 1994, #11 ) ;
#209 = ADVANCED_BREP_SHAPE_REPRESENTATION ( 'db6d', ( #17, #82 ), #206 ) ;
#210 = PERSON_AND_ORGANIZATION_ROLE ( 'design_owner' ) ;
#211 = VERTEX_POINT ( 'NONE', #181 ) ;
#212 = DIRECTION ( 'NONE',  ( 1.000000000000000000, 0.000000000000000000, 0.000000000000000000 ) ) ;
#213 = LOCAL_TIME ( 15, 45, 56.00000000000000000, #107 ) ;
#214 = EDGE_CURVE ( 'NONE', #12, #48, #10, .T. ) ;
#215 = CARTESIAN_POINT ( 'NONE',  ( -0.5000000000000000000, 0.000000000000000000, 151.1999999999999886 ) ) ;
#216 = ORIENTED_EDGE ( 'NONE', *, *, #13, .F. ) ;
#217 = APPROVAL_DATE_TIME ( #31, #202 ) ;
#218 = ORIENTED_EDGE ( 'NONE', *, *, #259, .F. ) ;
#219 = DATE_TIME_ROLE ( 'classification_date' ) ;
#220 = CC_DESIGN_APPROVAL ( #139, ( #295 ) ) ;
#221 = ORIENTED_EDGE ( 'NONE', *, *, #293, .F. ) ;
#222 = AXIS2_PLACEMENT_3D ( 'NONE', #156, #79, #168 ) ;
#223 = EDGE_LOOP ( 'NONE', ( #242, #194, #285, #171 ) ) ;
#224 = FACE_OUTER_BOUND ( 'NONE', #26, .T. ) ;
#225 = DIRECTION ( 'NONE',  ( -1.000000000000000000, 0.000000000000000000, 0.000000000000000000 ) ) ;
#226 = APPROVAL_DATE_TIME ( #254, #92 ) ;
#227 = EDGE_CURVE ( 'NONE', #84, #12, #272, .T. ) ;
#228 = CC_DESIGN_APPROVAL ( #202, ( #130 ) ) ;
#229 = DIRECTION ( 'NONE',  ( -0.000000000000000000, -0.000000000000000000, -1.000000000000000000 ) ) ;
#230 = DIRECTION ( 'NONE',  ( 0.000000000000000000, 0.000000000000000000, 1.000000000000000000 ) ) ;
#231 = EDGE_LOOP ( 'NONE', ( #292, #197 ) ) ;
#232 = VECTOR ( 'NONE', #147, 1000.000000000000000 ) ;
#233 =( NAMED_UNIT ( * ) PLANE_ANGLE_UNIT ( ) SI_UNIT ( $, .RADIAN. ) );
#234 = PERSON_AND_ORGANIZATION ( #271, #247 ) ;
#235 = ORIENTED_EDGE ( 'NONE', *, *, #97, .F. ) ;
#236 = EDGE_CURVE ( 'NONE', #287, #84, #93, .T. ) ;
#237 = DIRECTION ( 'NONE',  ( 1.000000000000000000, 0.000000000000000000, 0.000000000000000000 ) ) ;
#238 = AXIS2_PLACEMENT_3D ( 'NONE', #189, #25, #83 ) ;
#239 = AXIS2_PLACEMENT_3D ( 'NONE', #23, #253, #39 ) ;
#240 = CARTESIAN_POINT ( 'NONE',  ( -1.250000000000000000, 0.000000000000000000, 1.199999999999999956 ) ) ;
#241 = CALENDAR_DATE ( 2022, 28, 6 ) ;
#242 = ORIENTED_EDGE ( 'NONE', *, *, #227, .F. ) ;
#243 = PERSON_AND_ORGANIZATION_ROLE ( 'classification_officer' ) ;
#244 = ORIENTED_EDGE ( 'NONE', *, *, #97, .T. ) ;
#245 = CIRCLE ( 'NONE', #54, 1.250000000000000000 ) ;
#246 = DIRECTION ( 'NONE',  ( 1.000000000000000000, 0.000000000000000000, 0.000000000000000000 ) ) ;
#247 = ORGANIZATION ( 'NEURÈENÝ', 'NEURÈENÝ', '' ) ;
#248 = EDGE_LOOP ( 'NONE', ( #191, #129 ) ) ;
#249 = DIRECTION ( 'NONE',  ( -0.000000000000000000, -0.000000000000000000, -1.000000000000000000 ) ) ;
#250 = DIRECTION ( 'NONE',  ( 0.000000000000000000, 0.000000000000000000, 1.000000000000000000 ) ) ;
#251 = AXIS2_PLACEMENT_3D ( 'NONE', #94, #249, #162 ) ;
#252 = DIRECTION ( 'NONE',  ( 0.000000000000000000, 0.000000000000000000, -1.000000000000000000 ) ) ;
#253 = DIRECTION ( 'NONE',  ( -0.000000000000000000, -0.000000000000000000, -1.000000000000000000 ) ) ;
#254 = DATE_AND_TIME ( #85, #213 ) ;
#255 = ADVANCED_FACE ( 'NONE', ( #302 ), #180, .T. ) ;
#256 = DIRECTION ( 'NONE',  ( 1.000000000000000000, 0.000000000000000000, -0.000000000000000000 ) ) ;
#257 = LOCAL_TIME ( 15, 45, 56.00000000000000000, #47 ) ;
#258 = APPROVAL_STATUS ( 'not_yet_approved' ) ;
#259 = EDGE_CURVE ( 'NONE', #211, #265, #42, .T. ) ;
#260 = ORIENTED_EDGE ( 'NONE', *, *, #110, .F. ) ;
#261 = CARTESIAN_POINT ( 'NONE',  ( 0.000000000000000000, 0.000000000000000000, 0.000000000000000000 ) ) ;
#262 = CARTESIAN_POINT ( 'NONE',  ( -0.5000000000000000000, 0.000000000000000000, 1.400000000000012346 ) ) ;
#263 = DATE_TIME_ROLE ( 'creation_date' ) ;
#264 = AXIS2_PLACEMENT_3D ( 'NONE', #71, #230, #117 ) ;
#265 = VERTEX_POINT ( 'NONE', #138 ) ;
#266 = DIRECTION ( 'NONE',  ( 1.000000000000000000, 0.000000000000000000, 0.000000000000000000 ) ) ;
#267 = DIRECTION ( 'NONE',  ( 1.000000000000000000, 0.000000000000000000, 0.000000000000000000 ) ) ;
#268 = AXIS2_PLACEMENT_3D ( 'NONE', #116, #199, #179 ) ;
#269 = ORIENTED_EDGE ( 'NONE', *, *, #273, .F. ) ;
#270 = DIRECTION ( 'NONE',  ( 0.000000000000000000, 0.000000000000000000, 1.000000000000000000 ) ) ;
#271 = PERSON ( 'NEURÈENÝ', 'NEURÈENÝ', 'NEURÈENÝ', ('NEURÈENÝ'), ('NEURÈENÝ'), ('NEURÈENÝ') ) ;
#272 = CIRCLE ( 'NONE', #268, 0.5000000000000000000 ) ;
#273 = EDGE_CURVE ( 'NONE', #12, #84, #160, .T. ) ;
#274 = DIRECTION ( 'NONE',  ( 1.224646799147353207E-16, 1.000000000000000000, -0.000000000000000000 ) ) ;
#275 = DIRECTION ( 'NONE',  ( 0.000000000000000000, 0.000000000000000000, 1.000000000000000000 ) ) ;
#276 = CARTESIAN_POINT ( 'NONE',  ( -0.5000000000000000000, 0.000000000000000000, 151.1999999999999886 ) ) ;
#277 = CIRCLE ( 'NONE', #14, 0.5000000000000000000 ) ;
#278 = LINE ( 'NONE', #136, #170 ) ;
#279 = ADVANCED_FACE ( 'NONE', ( #307 ), #19, .F. ) ;
#280 = CARTESIAN_POINT ( 'NONE',  ( 1.250000000000000000, 1.530808498934191571E-16, 1.199999999999999956 ) ) ;
#281 = PERSON_AND_ORGANIZATION_ROLE ( 'creator' ) ;
#282 = ADVANCED_FACE ( 'NONE', ( #22 ), #99, .T. ) ;
#283 = AXIS2_PLACEMENT_3D ( 'NONE', #68, #159, #43 ) ;
#284 = APPROVAL_ROLE ( '' ) ;
#285 = ORIENTED_EDGE ( 'NONE', *, *, #190, .F. ) ;
#286 = APPROVAL_ROLE ( '' ) ;
#287 = VERTEX_POINT ( 'NONE', #215 ) ;
#288 = PERSON_AND_ORGANIZATION ( #271, #247 ) ;
#289 = VERTEX_POINT ( 'NONE', #172 ) ;
#290 = PERSON_AND_ORGANIZATION_ROLE ( 'design_supplier' ) ;
#291 = AXIS2_PLACEMENT_3D ( 'NONE', #96, #203, #225 ) ;
#292 = ORIENTED_EDGE ( 'NONE', *, *, #66, .T. ) ;
#293 = EDGE_CURVE ( 'NONE', #2, #297, #245, .T. ) ;
#294 = DATE_AND_TIME ( #174, #3 ) ;
#295 = PRODUCT_DEFINITION ( 'NEZNÁMÝ', '', #130, #72 ) ;
#296 = AXIS2_PLACEMENT_3D ( 'NONE', #205, #135, #304 ) ;
#297 = VERTEX_POINT ( 'NONE', #55 ) ;
#298 = PLANE ( 'NONE',  #123 ) ;
#299 = EDGE_CURVE ( 'NONE', #289, #287, #277, .T. ) ;
#300 = CYLINDRICAL_SURFACE ( 'NONE', #251, 0.5000000000000000000 ) ;
#301 = CIRCLE ( 'NONE', #118, 1.250000000000000000 ) ;
#302 = FACE_OUTER_BOUND ( 'NONE', #50, .T. ) ;
#303 = DIRECTION ( 'NONE',  ( 1.000000000000000000, 0.000000000000000000, 0.000000000000000000 ) ) ;
#304 = DIRECTION ( 'NONE',  ( 1.000000000000000000, 0.000000000000000000, 0.000000000000000000 ) ) ;
#305 = PRODUCT_RELATED_PRODUCT_CATEGORY ( 'detail', '', ( #142 ) ) ;
#306 = CIRCLE ( 'NONE', #222, 0.5000000000000000000 ) ;
#307 = FACE_OUTER_BOUND ( 'NONE', #88, .T. ) ;
ENDSEC;
END-ISO-10303-21;
