ISO-10303-21;
HEADER;
FILE_DESCRIPTION (( 'STEP AP203' ),
    '1' );
FILE_NAME ('c79e.STEP',
    '2022-06-20T09:32:25',
    ( '' ),
    ( '' ),
    'SwSTEP 2.0',
    'SolidWorks 2019',
    '' );
FILE_SCHEMA (( 'CONFIG_CONTROL_DESIGN' ));
ENDSEC;

DATA;
#1 = PLANE ( 'NONE',  #282 ) ;
#2 = AXIS2_PLACEMENT_3D ( 'NONE', #37, #3, #307 ) ;
#3 = DIRECTION ( 'NONE',  ( 0.000000000000000000, 0.000000000000000000, 1.000000000000000000 ) ) ;
#4 = CIRCLE ( 'NONE', #270, 9.000000000000000000 ) ;
#5 = EDGE_CURVE ( 'NONE', #55, #214, #147, .T. ) ;
#6 = PERSON_AND_ORGANIZATION ( #186, #230 ) ;
#7 = CARTESIAN_POINT ( 'NONE',  ( 0.000000000000000000, 0.000000000000000000, 7.000000000000000000 ) ) ;
#8 = LINE ( 'NONE', #171, #109 ) ;
#9 = DIRECTION ( 'NONE',  ( -1.000000000000000000, 0.000000000000000000, 0.000000000000000000 ) ) ;
#10 = UNCERTAINTY_MEASURE_WITH_UNIT (LENGTH_MEASURE( 1.000000000000000082E-05 ), #276, 'distance_accuracy_value', 'NONE');
#11 = CARTESIAN_POINT ( 'NONE',  ( 0.000000000000000000, 0.000000000000000000, 7.199999999999984190 ) ) ;
#12 = LOCAL_TIME ( 11, 32, 25.00000000000000000, #63 ) ;
#13 = CALENDAR_DATE ( 2022, 20, 6 ) ;
#14 = DIRECTION ( 'NONE',  ( -0.000000000000000000, -0.000000000000000000, -1.000000000000000000 ) ) ;
#15 = CALENDAR_DATE ( 2022, 20, 6 ) ;
#16 = CARTESIAN_POINT ( 'NONE',  ( 0.000000000000000000, 0.000000000000000000, 0.000000000000000000 ) ) ;
#17 = CARTESIAN_POINT ( 'NONE',  ( 0.000000000000000000, 0.000000000000000000, 7.000000000000000000 ) ) ;
#18 = VECTOR ( 'NONE', #117, 1000.000000000000000 ) ;
#19 =( NAMED_UNIT ( * ) SI_UNIT ( $, .STERADIAN. ) SOLID_ANGLE_UNIT ( ) );
#20 = AXIS2_PLACEMENT_3D ( 'NONE', #246, #211, #253 ) ;
#21 = CYLINDRICAL_SURFACE ( 'NONE', #99, 9.000000000000000000 ) ;
#22 = CC_DESIGN_APPROVAL ( #167, ( #105 ) ) ;
#23 = APPROVAL_DATE_TIME ( #279, #284 ) ;
#24 = ORIENTED_EDGE ( 'NONE', *, *, #79, .T. ) ;
#25 = EDGE_LOOP ( 'NONE', ( #136, #162, #89, #231 ) ) ;
#26 = APPROVAL_PERSON_ORGANIZATION ( #232, #284, #188 ) ;
#27 = EDGE_CURVE ( 'NONE', #49, #187, #69, .T. ) ;
#28 = ORIENTED_EDGE ( 'NONE', *, *, #241, .T. ) ;
#29 = APPLICATION_CONTEXT ( 'configuration controlled 3d designs of mechanical parts and assemblies' ) ;
#30 = ADVANCED_FACE ( 'NONE', ( #240 ), #53, .T. ) ;
#31 = CIRCLE ( 'NONE', #202, 0.1999999999999996503 ) ;
#32 = EDGE_CURVE ( 'NONE', #213, #305, #217, .T. ) ;
#33 = CARTESIAN_POINT ( 'NONE',  ( 0.000000000000000000, 0.000000000000000000, 7.199999999999984190 ) ) ;
#34 = DIRECTION ( 'NONE',  ( -0.000000000000000000, -0.000000000000000000, -1.000000000000000000 ) ) ;
#35 = APPLICATION_PROTOCOL_DEFINITION ( 'international standard', 'config_control_design', 1994, #29 ) ;
#36 = EDGE_LOOP ( 'NONE', ( #51, #134, #287, #194 ) ) ;
#37 = CARTESIAN_POINT ( 'NONE',  ( 0.000000000000000000, 0.000000000000000000, 507.0000000000000000 ) ) ;
#38 = PERSON_AND_ORGANIZATION_ROLE ( 'design_owner' ) ;
#39 = FACE_OUTER_BOUND ( 'NONE', #263, .T. ) ;
#40 = APPROVAL_ROLE ( '' ) ;
#41 = CARTESIAN_POINT ( 'NONE',  ( 9.000000000000000000, 1.102182119232617714E-15, 0.000000000000000000 ) ) ;
#42 = PERSON_AND_ORGANIZATION_ROLE ( 'creator' ) ;
#43 = TOROIDAL_SURFACE ( 'NONE', #159, 6.200000000000001066, 0.2000000000000000111 ) ;
#44 = SHAPE_DEFINITION_REPRESENTATION ( #56, #76 ) ;
#45 = APPROVAL ( #272, 'NEURÈENÝ' ) ;
#46 = FACE_OUTER_BOUND ( 'NONE', #190, .T. ) ;
#47 = DIRECTION ( 'NONE',  ( -1.000000000000000000, 0.000000000000000000, 0.000000000000000000 ) ) ;
#48 = CARTESIAN_POINT ( 'NONE',  ( 0.000000000000000000, 0.000000000000000000, 7.000000000000000000 ) ) ;
#49 = VERTEX_POINT ( 'NONE', #296 ) ;
#50 = AXIS2_PLACEMENT_3D ( 'NONE', #118, #96, #244 ) ;
#51 = ORIENTED_EDGE ( 'NONE', *, *, #165, .F. ) ;
#52 = ORIENTED_EDGE ( 'NONE', *, *, #241, .F. ) ;
#53 = CYLINDRICAL_SURFACE ( 'NONE', #237, 6.000000000000000888 ) ;
#54 = AXIS2_PLACEMENT_3D ( 'NONE', #77, #242, #238 ) ;
#55 = VERTEX_POINT ( 'NONE', #164 ) ;
#56 = PRODUCT_DEFINITION_SHAPE ( 'NONE', 'NONE',  #105 ) ;
#57 = CARTESIAN_POINT ( 'NONE',  ( 0.000000000000000000, 0.000000000000000000, 7.000000000000000000 ) ) ;
#58 = CALENDAR_DATE ( 2022, 20, 6 ) ;
#59 = DIRECTION ( 'NONE',  ( -1.000000000000000000, 1.224646799147353454E-16, 0.000000000000000000 ) ) ;
#60 = DIRECTION ( 'NONE',  ( 0.000000000000000000, 0.000000000000000000, 1.000000000000000000 ) ) ;
#61 = DIRECTION ( 'NONE',  ( -0.000000000000000000, -0.000000000000000000, -1.000000000000000000 ) ) ;
#62 = LOCAL_TIME ( 11, 32, 25.00000000000000000, #303 ) ;
#63 = COORDINATED_UNIVERSAL_TIME_OFFSET ( 1, 0, .AHEAD. ) ;
#64 = DIRECTION ( 'NONE',  ( 0.000000000000000000, -1.000000000000000000, 0.000000000000000000 ) ) ;
#65 = LINE ( 'NONE', #153, #290 ) ;
#66 = ADVANCED_FACE ( 'NONE', ( #144 ), #1, .F. ) ;
#67 = ORIENTED_EDGE ( 'NONE', *, *, #184, .T. ) ;
#68 = ORIENTED_EDGE ( 'NONE', *, *, #260, .T. ) ;
#69 = CIRCLE ( 'NONE', #275, 6.200000000000001066 ) ;
#70 = ORIENTED_EDGE ( 'NONE', *, *, #82, .T. ) ;
#71 = CIRCLE ( 'NONE', #262, 6.200000000000001066 ) ;
#72 = ORIENTED_EDGE ( 'NONE', *, *, #79, .F. ) ;
#73 = DIRECTION ( 'NONE',  ( 1.224646799147353207E-16, 1.000000000000000000, -0.000000000000000000 ) ) ;
#74 = PRODUCT ( 'c79e', 'c79e', '', ( #198 ) ) ;
#75 = CARTESIAN_POINT ( 'NONE',  ( -6.200000000000001066, 7.592810154713590821E-16, 7.199999999999984190 ) ) ;
#76 = ADVANCED_BREP_SHAPE_REPRESENTATION ( 'c79e', ( #85, #90 ), #175 ) ;
#77 = CARTESIAN_POINT ( 'NONE',  ( 0.000000000000000000, 0.000000000000000000, 507.0000000000000000 ) ) ;
#78 = DIRECTION ( 'NONE',  ( 0.000000000000000000, 0.000000000000000000, 1.000000000000000000 ) ) ;
#79 = EDGE_CURVE ( 'NONE', #304, #92, #142, .T. ) ;
#80 = DIRECTION ( 'NONE',  ( 0.000000000000000000, 0.000000000000000000, 1.000000000000000000 ) ) ;
#81 = AXIS2_PLACEMENT_3D ( 'NONE', #209, #182, #160 ) ;
#82 = EDGE_CURVE ( 'NONE', #92, #304, #224, .T. ) ;
#83 = DIRECTION ( 'NONE',  ( 0.000000000000000000, 0.000000000000000000, 1.000000000000000000 ) ) ;
#84 = PERSON_AND_ORGANIZATION ( #186, #230 ) ;
#85 = MANIFOLD_SOLID_BREP ( 'Zaoblit1', #207 ) ;
#86 = DIRECTION ( 'NONE',  ( 1.000000000000000000, 0.000000000000000000, 0.000000000000000000 ) ) ;
#87 = LOCAL_TIME ( 11, 32, 25.00000000000000000, #123 ) ;
#88 = CYLINDRICAL_SURFACE ( 'NONE', #210, 6.000000000000000888 ) ;
#89 = ORIENTED_EDGE ( 'NONE', *, *, #204, .T. ) ;
#90 = AXIS2_PLACEMENT_3D ( 'NONE', #268, #80, #200 ) ;
#91 = ORIENTED_EDGE ( 'NONE', *, *, #193, .F. ) ;
#92 = VERTEX_POINT ( 'NONE', #265 ) ;
#93 = ORIENTED_EDGE ( 'NONE', *, *, #204, .F. ) ;
#94 = ORIENTED_EDGE ( 'NONE', *, *, #227, .F. ) ;
#95 = PLANE ( 'NONE',  #50 ) ;
#96 = DIRECTION ( 'NONE',  ( 0.000000000000000000, 0.000000000000000000, 1.000000000000000000 ) ) ;
#97 = AXIS2_PLACEMENT_3D ( 'NONE', #33, #141, #222 ) ;
#98 = CARTESIAN_POINT ( 'NONE',  ( 0.000000000000000000, 0.000000000000000000, 7.199999999999984190 ) ) ;
#99 = AXIS2_PLACEMENT_3D ( 'NONE', #300, #14, #9 ) ;
#100 = FACE_BOUND ( 'NONE', #191, .T. ) ;
#101 = DATE_AND_TIME ( #173, #87 ) ;
#102 = CARTESIAN_POINT ( 'NONE',  ( 0.000000000000000000, 0.000000000000000000, 7.000000000000000000 ) ) ;
#103 = ADVANCED_FACE ( 'NONE', ( #294 ), #95, .T. ) ;
#104 = PERSON_AND_ORGANIZATION_ROLE ( 'creator' ) ;
#105 = PRODUCT_DEFINITION ( 'NEZNÁMÝ', '', #291, #131 ) ;
#106 = APPROVAL_ROLE ( '' ) ;
#107 = COORDINATED_UNIVERSAL_TIME_OFFSET ( 1, 0, .AHEAD. ) ;
#108 = LINE ( 'NONE', #151, #137 ) ;
#109 = VECTOR ( 'NONE', #61, 1000.000000000000000 ) ;
#110 = CC_DESIGN_APPROVAL ( #45, ( #291 ) ) ;
#111 = APPROVAL_STATUS ( 'not_yet_approved' ) ;
#112 = CC_DESIGN_DATE_AND_TIME_ASSIGNMENT ( #203, #295, ( #105 ) ) ;
#113 = ORIENTED_EDGE ( 'NONE', *, *, #183, .T. ) ;
#114 = CC_DESIGN_PERSON_AND_ORGANIZATION_ASSIGNMENT ( #84, #127, ( #291 ) ) ;
#115 = ORIENTED_EDGE ( 'NONE', *, *, #227, .T. ) ;
#116 = LOCAL_TIME ( 11, 32, 25.00000000000000000, #220 ) ;
#117 = DIRECTION ( 'NONE',  ( -0.000000000000000000, -0.000000000000000000, -1.000000000000000000 ) ) ;
#118 = CARTESIAN_POINT ( 'NONE',  ( 0.000000000000000000, 0.000000000000000000, 507.0000000000000000 ) ) ;
#119 = PERSON_AND_ORGANIZATION ( #186, #230 ) ;
#120 = DIRECTION ( 'NONE',  ( 1.000000000000000000, 0.000000000000000000, -0.000000000000000000 ) ) ;
#121 = PRODUCT_RELATED_PRODUCT_CATEGORY ( 'detail', '', ( #74 ) ) ;
#122 = DIRECTION ( 'NONE',  ( 0.000000000000000000, 0.000000000000000000, 1.000000000000000000 ) ) ;
#123 = COORDINATED_UNIVERSAL_TIME_OFFSET ( 1, 0, .AHEAD. ) ;
#124 = DIRECTION ( 'NONE',  ( 1.000000000000000000, 0.000000000000000000, -0.000000000000000000 ) ) ;
#125 = PERSON_AND_ORGANIZATION ( #186, #230 ) ;
#126 = DIRECTION ( 'NONE',  ( -0.000000000000000000, -0.000000000000000000, -1.000000000000000000 ) ) ;
#127 = PERSON_AND_ORGANIZATION_ROLE ( 'design_supplier' ) ;
#128 = FACE_OUTER_BOUND ( 'NONE', #286, .T. ) ;
#129 = SECURITY_CLASSIFICATION ( '', '', #178 ) ;
#130 = CARTESIAN_POINT ( 'NONE',  ( -6.000000000000000888, 0.000000000000000000, 7.199999999999984190 ) ) ;
#131 = DESIGN_CONTEXT ( 'detailed design', #29, 'design' ) ;
#132 = CYLINDRICAL_SURFACE ( 'NONE', #81, 9.000000000000000000 ) ;
#133 = AXIS2_PLACEMENT_3D ( 'NONE', #7, #78, #124 ) ;
#134 = ORIENTED_EDGE ( 'NONE', *, *, #5, .F. ) ;
#135 = CC_DESIGN_PERSON_AND_ORGANIZATION_ASSIGNMENT ( #205, #42, ( #291 ) ) ;
#136 = ORIENTED_EDGE ( 'NONE', *, *, #183, .F. ) ;
#137 = VECTOR ( 'NONE', #280, 1000.000000000000000 ) ;
#138 = CC_DESIGN_APPROVAL ( #284, ( #129 ) ) ;
#139 = ORIENTED_EDGE ( 'NONE', *, *, #27, .T. ) ;
#140 = VERTEX_POINT ( 'NONE', #293 ) ;
#141 = DIRECTION ( 'NONE',  ( 0.000000000000000000, 0.000000000000000000, 1.000000000000000000 ) ) ;
#142 = CIRCLE ( 'NONE', #54, 6.000000000000000888 ) ;
#143 = CARTESIAN_POINT ( 'NONE',  ( 0.000000000000000000, 0.000000000000000000, 507.0000000000000000 ) ) ;
#144 = FACE_OUTER_BOUND ( 'NONE', #289, .T. ) ;
#145 = CC_DESIGN_PERSON_AND_ORGANIZATION_ASSIGNMENT ( #119, #104, ( #105 ) ) ;
#146 = DIRECTION ( 'NONE',  ( 0.000000000000000000, 0.000000000000000000, 1.000000000000000000 ) ) ;
#147 = CIRCLE ( 'NONE', #97, 6.000000000000000888 ) ;
#148 = DIRECTION ( 'NONE',  ( -1.000000000000000000, 0.000000000000000000, 0.000000000000000000 ) ) ;
#149 = CIRCLE ( 'NONE', #20, 9.000000000000000000 ) ;
#150 = FACE_OUTER_BOUND ( 'NONE', #36, .T. ) ;
#151 = CARTESIAN_POINT ( 'NONE',  ( -9.000000000000000000, 0.000000000000000000, 7.000000000000000000 ) ) ;
#152 = DATE_AND_TIME ( #58, #116 ) ;
#153 = CARTESIAN_POINT ( 'NONE',  ( -6.000000000000000888, 0.000000000000000000, 507.0000000000000000 ) ) ;
#154 = EDGE_CURVE ( 'NONE', #214, #55, #196, .T. ) ;
#155 = LOCAL_TIME ( 11, 32, 25.00000000000000000, #107 ) ;
#156 = DIRECTION ( 'NONE',  ( -0.000000000000000000, -0.000000000000000000, -1.000000000000000000 ) ) ;
#157 =( NAMED_UNIT ( * ) PLANE_ANGLE_UNIT ( ) SI_UNIT ( $, .RADIAN. ) );
#158 = CALENDAR_DATE ( 2022, 20, 6 ) ;
#159 = AXIS2_PLACEMENT_3D ( 'NONE', #195, #122, #221 ) ;
#160 = DIRECTION ( 'NONE',  ( -1.000000000000000000, 0.000000000000000000, 0.000000000000000000 ) ) ;
#161 = EDGE_LOOP ( 'NONE', ( #301, #235, #169, #91 ) ) ;
#162 = ORIENTED_EDGE ( 'NONE', *, *, #82, .F. ) ;
#163 = ADVANCED_FACE ( 'NONE', ( #170 ), #43, .F. ) ;
#164 = CARTESIAN_POINT ( 'NONE',  ( 6.000000000000000888, 7.347880794884120722E-16, 7.199999999999984190 ) ) ;
#165 = EDGE_CURVE ( 'NONE', #214, #49, #31, .T. ) ;
#166 = PLANE ( 'NONE',  #133 ) ;
#167 = APPROVAL ( #245, 'NEURÈENÝ' ) ;
#168 = APPROVAL_PERSON_ORGANIZATION ( #125, #167, #40 ) ;
#169 = ORIENTED_EDGE ( 'NONE', *, *, #260, .F. ) ;
#170 = FACE_OUTER_BOUND ( 'NONE', #161, .T. ) ;
#171 = CARTESIAN_POINT ( 'NONE',  ( 6.000000000000000888, 7.347880794884120722E-16, 507.0000000000000000 ) ) ;
#172 = DIRECTION ( 'NONE',  ( 1.000000000000000000, 0.000000000000000000, 0.000000000000000000 ) ) ;
#173 = CALENDAR_DATE ( 2022, 20, 6 ) ;
#174 = CIRCLE ( 'NONE', #254, 0.1999999999999996503 ) ;
#175 =( GEOMETRIC_REPRESENTATION_CONTEXT ( 3 ) GLOBAL_UNCERTAINTY_ASSIGNED_CONTEXT ( ( #10 ) ) GLOBAL_UNIT_ASSIGNED_CONTEXT ( ( #276, #157, #19 ) ) REPRESENTATION_CONTEXT ( 'NONE', 'WORKASPACE' ) );
#176 = CARTESIAN_POINT ( 'NONE',  ( 6.200000000000001066, 0.000000000000000000, 7.199999999999984190 ) ) ;
#177 = ADVANCED_FACE ( 'NONE', ( #100, #39 ), #166, .T. ) ;
#178 = SECURITY_CLASSIFICATION_LEVEL ( 'unclassified' ) ;
#179 = FACE_OUTER_BOUND ( 'NONE', #25, .T. ) ;
#180 = CARTESIAN_POINT ( 'NONE',  ( 6.000000000000000888, 7.347880794884120722E-16, 507.0000000000000000 ) ) ;
#181 = DATE_AND_TIME ( #15, #155 ) ;
#182 = DIRECTION ( 'NONE',  ( -0.000000000000000000, -0.000000000000000000, -1.000000000000000000 ) ) ;
#183 = EDGE_CURVE ( 'NONE', #304, #55, #8, .T. ) ;
#184 = EDGE_CURVE ( 'NONE', #213, #140, #249, .T. ) ;
#185 = PERSON_AND_ORGANIZATION ( #186, #230 ) ;
#186 = PERSON ( 'NEURÈENÝ', 'NEURÈENÝ', 'NEURÈENÝ', ('NEURÈENÝ'), ('NEURÈENÝ'), ('NEURÈENÝ') ) ;
#187 = VERTEX_POINT ( 'NONE', #266 ) ;
#188 = APPROVAL_ROLE ( '' ) ;
#189 = ORIENTED_EDGE ( 'NONE', *, *, #298, .F. ) ;
#190 = EDGE_LOOP ( 'NONE', ( #236, #189, #259, #115 ) ) ;
#191 = EDGE_LOOP ( 'NONE', ( #68, #139 ) ) ;
#192 = ORIENTED_EDGE ( 'NONE', *, *, #5, .T. ) ;
#193 = EDGE_CURVE ( 'NONE', #55, #187, #174, .T. ) ;
#194 = ORIENTED_EDGE ( 'NONE', *, *, #27, .F. ) ;
#195 = CARTESIAN_POINT ( 'NONE',  ( 0.000000000000000000, 0.000000000000000000, 7.199999999999984190 ) ) ;
#196 = CIRCLE ( 'NONE', #225, 6.000000000000000888 ) ;
#197 = DIRECTION ( 'NONE',  ( 1.000000000000000000, 0.000000000000000000, 0.000000000000000000 ) ) ;
#198 = MECHANICAL_CONTEXT ( 'NONE', #288, 'mechanical' ) ;
#199 = DIRECTION ( 'NONE',  ( 1.000000000000000000, 0.000000000000000000, 0.000000000000000000 ) ) ;
#200 = DIRECTION ( 'NONE',  ( 1.000000000000000000, 0.000000000000000000, 0.000000000000000000 ) ) ;
#201 = DIRECTION ( 'NONE',  ( 0.000000000000000000, 0.000000000000000000, 1.000000000000000000 ) ) ;
#202 = AXIS2_PLACEMENT_3D ( 'NONE', #75, #73, #59 ) ;
#203 = DATE_AND_TIME ( #13, #12 ) ;
#204 = EDGE_CURVE ( 'NONE', #92, #214, #65, .T. ) ;
#205 = PERSON_AND_ORGANIZATION ( #186, #230 ) ;
#206 = DIRECTION ( 'NONE',  ( -0.000000000000000000, -0.000000000000000000, -1.000000000000000000 ) ) ;
#207 = CLOSED_SHELL ( 'NONE', ( #163, #30, #248, #264, #177, #66, #252, #103, #302 ) ) ;
#208 = PERSON_AND_ORGANIZATION_ROLE ( 'classification_officer' ) ;
#209 = CARTESIAN_POINT ( 'NONE',  ( 0.000000000000000000, 0.000000000000000000, 7.000000000000000000 ) ) ;
#210 = AXIS2_PLACEMENT_3D ( 'NONE', #277, #156, #47 ) ;
#211 = DIRECTION ( 'NONE',  ( 0.000000000000000000, 0.000000000000000000, 1.000000000000000000 ) ) ;
#212 = CC_DESIGN_PERSON_AND_ORGANIZATION_ASSIGNMENT ( #185, #208, ( #129 ) ) ;
#213 = VERTEX_POINT ( 'NONE', #250 ) ;
#214 = VERTEX_POINT ( 'NONE', #130 ) ;
#215 = DIRECTION ( 'NONE',  ( 0.000000000000000000, 0.000000000000000000, 1.000000000000000000 ) ) ;
#216 = CC_DESIGN_DATE_AND_TIME_ASSIGNMENT ( #181, #285, ( #129 ) ) ;
#217 = LINE ( 'NONE', #297, #18 ) ;
#218 = PERSON_AND_ORGANIZATION ( #186, #230 ) ;
#219 = DIRECTION ( 'NONE',  ( -0.000000000000000000, -0.000000000000000000, -1.000000000000000000 ) ) ;
#220 = COORDINATED_UNIVERSAL_TIME_OFFSET ( 1, 0, .AHEAD. ) ;
#221 = DIRECTION ( 'NONE',  ( 1.000000000000000000, 0.000000000000000000, 0.000000000000000000 ) ) ;
#222 = DIRECTION ( 'NONE',  ( 1.000000000000000000, 0.000000000000000000, 0.000000000000000000 ) ) ;
#223 = EDGE_CURVE ( 'NONE', #140, #292, #108, .T. ) ;
#224 = CIRCLE ( 'NONE', #2, 6.000000000000000888 ) ;
#225 = AXIS2_PLACEMENT_3D ( 'NONE', #98, #146, #197 ) ;
#226 = TOROIDAL_SURFACE ( 'NONE', #257, 6.200000000000001066, 0.2000000000000000111 ) ;
#227 = EDGE_CURVE ( 'NONE', #292, #305, #4, .T. ) ;
#228 = DIRECTION ( 'NONE',  ( 0.000000000000000000, 0.000000000000000000, 1.000000000000000000 ) ) ;
#229 = AXIS2_PLACEMENT_3D ( 'NONE', #102, #201, #299 ) ;
#230 = ORGANIZATION ( 'NEURÈENÝ', 'NEURÈENÝ', '' ) ;
#231 = ORIENTED_EDGE ( 'NONE', *, *, #154, .T. ) ;
#232 = PERSON_AND_ORGANIZATION ( #186, #230 ) ;
#233 = EDGE_LOOP ( 'NONE', ( #72, #113, #192, #93 ) ) ;
#234 = CIRCLE ( 'NONE', #256, 9.000000000000000000 ) ;
#235 = ORIENTED_EDGE ( 'NONE', *, *, #165, .T. ) ;
#236 = ORIENTED_EDGE ( 'NONE', *, *, #32, .F. ) ;
#237 = AXIS2_PLACEMENT_3D ( 'NONE', #143, #34, #148 ) ;
#238 = DIRECTION ( 'NONE',  ( 1.000000000000000000, 0.000000000000000000, 0.000000000000000000 ) ) ;
#239 = CARTESIAN_POINT ( 'NONE',  ( 0.000000000000000000, 0.000000000000000000, 0.000000000000000000 ) ) ;
#240 = FACE_OUTER_BOUND ( 'NONE', #233, .T. ) ;
#241 = EDGE_CURVE ( 'NONE', #305, #292, #149, .T. ) ;
#242 = DIRECTION ( 'NONE',  ( 0.000000000000000000, 0.000000000000000000, 1.000000000000000000 ) ) ;
#243 = APPLICATION_PROTOCOL_DEFINITION ( 'international standard', 'config_control_design', 1994, #288 ) ;
#244 = DIRECTION ( 'NONE',  ( 1.000000000000000000, 0.000000000000000000, -0.000000000000000000 ) ) ;
#245 = APPROVAL_STATUS ( 'not_yet_approved' ) ;
#246 = CARTESIAN_POINT ( 'NONE',  ( 0.000000000000000000, 0.000000000000000000, 0.000000000000000000 ) ) ;
#247 = APPROVAL_DATE_TIME ( #152, #45 ) ;
#248 = ADVANCED_FACE ( 'NONE', ( #128 ), #21, .T. ) ;
#249 = CIRCLE ( 'NONE', #229, 9.000000000000000000 ) ;
#250 = CARTESIAN_POINT ( 'NONE',  ( 9.000000000000000000, 1.102182119232617714E-15, 7.000000000000000000 ) ) ;
#251 = DIRECTION ( 'NONE',  ( 1.000000000000000000, 0.000000000000000000, 0.000000000000000000 ) ) ;
#252 = ADVANCED_FACE ( 'NONE', ( #179 ), #88, .T. ) ;
#253 = DIRECTION ( 'NONE',  ( 1.000000000000000000, 0.000000000000000000, 0.000000000000000000 ) ) ;
#254 = AXIS2_PLACEMENT_3D ( 'NONE', #176, #64, #273 ) ;
#255 = EDGE_LOOP ( 'NONE', ( #70, #24 ) ) ;
#256 = AXIS2_PLACEMENT_3D ( 'NONE', #48, #60, #172 ) ;
#257 = AXIS2_PLACEMENT_3D ( 'NONE', #11, #83, #274 ) ;
#258 = CARTESIAN_POINT ( 'NONE',  ( -9.000000000000000000, 0.000000000000000000, 0.000000000000000000 ) ) ;
#259 = ORIENTED_EDGE ( 'NONE', *, *, #223, .T. ) ;
#260 = EDGE_CURVE ( 'NONE', #187, #49, #71, .T. ) ;
#261 = ORIENTED_EDGE ( 'NONE', *, *, #32, .T. ) ;
#262 = AXIS2_PLACEMENT_3D ( 'NONE', #17, #206, #251 ) ;
#263 = EDGE_LOOP ( 'NONE', ( #269, #67 ) ) ;
#264 = ADVANCED_FACE ( 'NONE', ( #46 ), #132, .T. ) ;
#265 = CARTESIAN_POINT ( 'NONE',  ( -6.000000000000000888, 0.000000000000000000, 507.0000000000000000 ) ) ;
#266 = CARTESIAN_POINT ( 'NONE',  ( 6.200000000000001066, 0.000000000000000000, 6.999999999999992006 ) ) ;
#267 = ORIENTED_EDGE ( 'NONE', *, *, #223, .F. ) ;
#268 = CARTESIAN_POINT ( 'NONE',  ( 0.000000000000000000, 0.000000000000000000, 0.000000000000000000 ) ) ;
#269 = ORIENTED_EDGE ( 'NONE', *, *, #298, .T. ) ;
#270 = AXIS2_PLACEMENT_3D ( 'NONE', #16, #228, #86 ) ;
#271 = APPROVAL_DATE_TIME ( #101, #167 ) ;
#272 = APPROVAL_STATUS ( 'not_yet_approved' ) ;
#273 = DIRECTION ( 'NONE',  ( 0.000000000000000000, 0.000000000000000000, -1.000000000000000000 ) ) ;
#274 = DIRECTION ( 'NONE',  ( 1.000000000000000000, 0.000000000000000000, 0.000000000000000000 ) ) ;
#275 = AXIS2_PLACEMENT_3D ( 'NONE', #57, #219, #199 ) ;
#276 =( LENGTH_UNIT ( ) NAMED_UNIT ( * ) SI_UNIT ( .MILLI., .METRE. ) );
#277 = CARTESIAN_POINT ( 'NONE',  ( 0.000000000000000000, 0.000000000000000000, 507.0000000000000000 ) ) ;
#278 = APPROVAL_PERSON_ORGANIZATION ( #6, #45, #106 ) ;
#279 = DATE_AND_TIME ( #158, #62 ) ;
#280 = DIRECTION ( 'NONE',  ( -0.000000000000000000, -0.000000000000000000, -1.000000000000000000 ) ) ;
#281 = CC_DESIGN_PERSON_AND_ORGANIZATION_ASSIGNMENT ( #218, #38, ( #74 ) ) ;
#282 = AXIS2_PLACEMENT_3D ( 'NONE', #239, #215, #120 ) ;
#283 = CC_DESIGN_SECURITY_CLASSIFICATION ( #129, ( #291 ) ) ;
#284 = APPROVAL ( #111, 'NEURÈENÝ' ) ;
#285 = DATE_TIME_ROLE ( 'classification_date' ) ;
#286 = EDGE_LOOP ( 'NONE', ( #306, #261, #28, #267 ) ) ;
#287 = ORIENTED_EDGE ( 'NONE', *, *, #193, .T. ) ;
#288 = APPLICATION_CONTEXT ( 'configuration controlled 3d designs of mechanical parts and assemblies' ) ;
#289 = EDGE_LOOP ( 'NONE', ( #94, #52 ) ) ;
#290 = VECTOR ( 'NONE', #126, 1000.000000000000000 ) ;
#291 = PRODUCT_DEFINITION_FORMATION_WITH_SPECIFIED_SOURCE ( 'LIBOVOLNÝ', '', #74, .NOT_KNOWN. ) ;
#292 = VERTEX_POINT ( 'NONE', #258 ) ;
#293 = CARTESIAN_POINT ( 'NONE',  ( -9.000000000000000000, 0.000000000000000000, 7.000000000000000000 ) ) ;
#294 = FACE_OUTER_BOUND ( 'NONE', #255, .T. ) ;
#295 = DATE_TIME_ROLE ( 'creation_date' ) ;
#296 = CARTESIAN_POINT ( 'NONE',  ( -6.200000000000001066, 7.592810154713590821E-16, 6.999999999999992006 ) ) ;
#297 = CARTESIAN_POINT ( 'NONE',  ( 9.000000000000000000, 1.102182119232617714E-15, 7.000000000000000000 ) ) ;
#298 = EDGE_CURVE ( 'NONE', #140, #213, #234, .T. ) ;
#299 = DIRECTION ( 'NONE',  ( 1.000000000000000000, 0.000000000000000000, 0.000000000000000000 ) ) ;
#300 = CARTESIAN_POINT ( 'NONE',  ( 0.000000000000000000, 0.000000000000000000, 7.000000000000000000 ) ) ;
#301 = ORIENTED_EDGE ( 'NONE', *, *, #154, .F. ) ;
#302 = ADVANCED_FACE ( 'NONE', ( #150 ), #226, .F. ) ;
#303 = COORDINATED_UNIVERSAL_TIME_OFFSET ( 1, 0, .AHEAD. ) ;
#304 = VERTEX_POINT ( 'NONE', #180 ) ;
#305 = VERTEX_POINT ( 'NONE', #41 ) ;
#306 = ORIENTED_EDGE ( 'NONE', *, *, #184, .F. ) ;
#307 = DIRECTION ( 'NONE',  ( 1.000000000000000000, 0.000000000000000000, 0.000000000000000000 ) ) ;
ENDSEC;
END-ISO-10303-21;
