ISO-10303-21;
HEADER;
FILE_DESCRIPTION (( 'STEP AP203' ),
    '1' );
FILE_NAME ('12fb.STEP',
    '2022-06-20T09:30:58',
    ( '' ),
    ( '' ),
    'SwSTEP 2.0',
    'SolidWorks 2019',
    '' );
FILE_SCHEMA (( 'CONFIG_CONTROL_DESIGN' ));
ENDSEC;

DATA;
#1 = DIRECTION ( 'NONE',  ( -0.000000000000000000, -0.000000000000000000, -1.000000000000000000 ) ) ;
#2 = DIRECTION ( 'NONE',  ( -1.000000000000000000, 0.000000000000000000, 0.000000000000000000 ) ) ;
#3 = DIRECTION ( 'NONE',  ( 1.000000000000000000, 0.000000000000000000, 0.000000000000000000 ) ) ;
#4 = CC_DESIGN_DATE_AND_TIME_ASSIGNMENT ( #217, #220, ( #66 ) ) ;
#5 = LOCAL_TIME ( 11, 30, 58.00000000000000000, #268 ) ;
#6 = CARTESIAN_POINT ( 'NONE',  ( 6.099999999999999645, 7.470345474798854293E-16, 257.0000000000000000 ) ) ;
#7 = EDGE_CURVE ( 'NONE', #280, #232, #73, .T. ) ;
#8 = COORDINATED_UNIVERSAL_TIME_OFFSET ( 1, 0, .AHEAD. ) ;
#9 = DATE_AND_TIME ( #225, #42 ) ;
#10 = ORIENTED_EDGE ( 'NONE', *, *, #48, .F. ) ;
#11 = ORIENTED_EDGE ( 'NONE', *, *, #228, .F. ) ;
#12 = PRODUCT_DEFINITION ( 'NEZNÁMÝ', '', #108, #104 ) ;
#13 = EDGE_LOOP ( 'NONE', ( #157, #131, #210, #231 ) ) ;
#14 = AXIS2_PLACEMENT_3D ( 'NONE', #163, #1, #2 ) ;
#15 = EDGE_LOOP ( 'NONE', ( #304, #204 ) ) ;
#16 = CC_DESIGN_APPROVAL ( #110, ( #66 ) ) ;
#17 = ORIENTED_EDGE ( 'NONE', *, *, #297, .F. ) ;
#18 = DIRECTION ( 'NONE',  ( 0.000000000000000000, 0.000000000000000000, 1.000000000000000000 ) ) ;
#19 = VERTEX_POINT ( 'NONE', #234 ) ;
#20 = APPLICATION_CONTEXT ( 'configuration controlled 3d designs of mechanical parts and assemblies' ) ;
#21 = DIRECTION ( 'NONE',  ( 0.000000000000000000, 0.000000000000000000, 1.000000000000000000 ) ) ;
#22 = CC_DESIGN_DATE_AND_TIME_ASSIGNMENT ( #211, #69, ( #12 ) ) ;
#23 = CARTESIAN_POINT ( 'NONE',  ( 0.000000000000000000, 0.000000000000000000, 257.0000000000000000 ) ) ;
#24 = DIRECTION ( 'NONE',  ( -1.000000000000000000, 1.224646799147353454E-16, 0.000000000000000000 ) ) ;
#25 = VECTOR ( 'NONE', #137, 1000.000000000000000 ) ;
#26 = CARTESIAN_POINT ( 'NONE',  ( 0.000000000000000000, 0.000000000000000000, 7.200000000000011724 ) ) ;
#27 = CARTESIAN_POINT ( 'NONE',  ( 6.099999999999999645, 7.470345474798854293E-16, 7.200000000000011724 ) ) ;
#28 = CARTESIAN_POINT ( 'NONE',  ( -6.299999999999998934, 7.715274834628324392E-16, 7.200000000000011724 ) ) ;
#29 = SHAPE_DEFINITION_REPRESENTATION ( #43, #156 ) ;
#30 = AXIS2_PLACEMENT_3D ( 'NONE', #28, #168, #24 ) ;
#31 = APPROVAL_PERSON_ORGANIZATION ( #154, #110, #127 ) ;
#32 = ADVANCED_FACE ( 'NONE', ( #264 ), #306, .T. ) ;
#33 = COORDINATED_UNIVERSAL_TIME_OFFSET ( 1, 0, .AHEAD. ) ;
#34 = CIRCLE ( 'NONE', #278, 6.299999999999998934 ) ;
#35 = VERTEX_POINT ( 'NONE', #88 ) ;
#36 = CIRCLE ( 'NONE', #54, 9.000000000000000000 ) ;
#37 = DIRECTION ( 'NONE',  ( 1.000000000000000000, 0.000000000000000000, -0.000000000000000000 ) ) ;
#38 = AXIS2_PLACEMENT_3D ( 'NONE', #293, #51, #118 ) ;
#39 = ADVANCED_FACE ( 'NONE', ( #256 ), #241, .T. ) ;
#40 = ORIENTED_EDGE ( 'NONE', *, *, #180, .T. ) ;
#41 = CARTESIAN_POINT ( 'NONE',  ( 6.299999999999998934, 0.000000000000000000, 7.200000000000011724 ) ) ;
#42 = LOCAL_TIME ( 11, 30, 58.00000000000000000, #199 ) ;
#43 = PRODUCT_DEFINITION_SHAPE ( 'NONE', 'NONE',  #12 ) ;
#44 = EDGE_LOOP ( 'NONE', ( #62, #129, #277, #237 ) ) ;
#45 = VERTEX_POINT ( 'NONE', #258 ) ;
#46 = DIRECTION ( 'NONE',  ( -1.000000000000000000, 0.000000000000000000, 0.000000000000000000 ) ) ;
#47 = DIRECTION ( 'NONE',  ( 0.000000000000000000, 0.000000000000000000, 1.000000000000000000 ) ) ;
#48 = EDGE_CURVE ( 'NONE', #232, #19, #246, .T. ) ;
#49 = CARTESIAN_POINT ( 'NONE',  ( 9.000000000000000000, 1.102182119232617714E-15, 0.000000000000000000 ) ) ;
#50 = DIRECTION ( 'NONE',  ( -1.000000000000000000, 0.000000000000000000, 0.000000000000000000 ) ) ;
#51 = DIRECTION ( 'NONE',  ( 0.000000000000000000, 0.000000000000000000, 1.000000000000000000 ) ) ;
#52 = CARTESIAN_POINT ( 'NONE',  ( -6.299999999999998934, 7.715274834628324392E-16, 7.000000000000006217 ) ) ;
#53 = PERSON_AND_ORGANIZATION_ROLE ( 'design_supplier' ) ;
#54 = AXIS2_PLACEMENT_3D ( 'NONE', #242, #146, #214 ) ;
#55 = PRODUCT_RELATED_PRODUCT_CATEGORY ( 'detail', '', ( #187 ) ) ;
#56 = CC_DESIGN_SECURITY_CLASSIFICATION ( #66, ( #108 ) ) ;
#57 = EDGE_LOOP ( 'NONE', ( #207, #226, #107, #92 ) ) ;
#58 = CARTESIAN_POINT ( 'NONE',  ( 0.000000000000000000, 0.000000000000000000, 7.000000000000000000 ) ) ;
#59 = ORIENTED_EDGE ( 'NONE', *, *, #255, .T. ) ;
#60 = ADVANCED_FACE ( 'NONE', ( #282 ), #64, .T. ) ;
#61 = AXIS2_PLACEMENT_3D ( 'NONE', #172, #266, #50 ) ;
#62 = ORIENTED_EDGE ( 'NONE', *, *, #190, .F. ) ;
#63 = AXIS2_PLACEMENT_3D ( 'NONE', #257, #18, #205 ) ;
#64 = CYLINDRICAL_SURFACE ( 'NONE', #14, 9.000000000000000000 ) ;
#65 = CIRCLE ( 'NONE', #236, 9.000000000000000000 ) ;
#66 = SECURITY_CLASSIFICATION ( '', '', #274 ) ;
#67 = ORIENTED_EDGE ( 'NONE', *, *, #126, .T. ) ;
#68 = ORIENTED_EDGE ( 'NONE', *, *, #113, .F. ) ;
#69 = DATE_TIME_ROLE ( 'creation_date' ) ;
#70 = ADVANCED_FACE ( 'NONE', ( #286 ), #80, .F. ) ;
#71 = CARTESIAN_POINT ( 'NONE',  ( -9.000000000000000000, 0.000000000000000000, 7.000000000000000000 ) ) ;
#72 = CARTESIAN_POINT ( 'NONE',  ( 0.000000000000000000, 0.000000000000000000, 7.200000000000011724 ) ) ;
#73 = LINE ( 'NONE', #93, #25 ) ;
#74 = FACE_OUTER_BOUND ( 'NONE', #15, .T. ) ;
#75 = FACE_OUTER_BOUND ( 'NONE', #44, .T. ) ;
#76 = DATE_AND_TIME ( #98, #198 ) ;
#77 =( NAMED_UNIT ( * ) PLANE_ANGLE_UNIT ( ) SI_UNIT ( $, .RADIAN. ) );
#78 = CC_DESIGN_PERSON_AND_ORGANIZATION_ASSIGNMENT ( #143, #115, ( #12 ) ) ;
#79 = PERSON_AND_ORGANIZATION ( #299, #284 ) ;
#80 = TOROIDAL_SURFACE ( 'NONE', #63, 6.299999999999998934, 0.2000000000000000111 ) ;
#81 = CARTESIAN_POINT ( 'NONE',  ( -6.099999999999999645, 0.000000000000000000, 7.200000000000011724 ) ) ;
#82 = EDGE_CURVE ( 'NONE', #275, #301, #90, .T. ) ;
#83 = PERSON_AND_ORGANIZATION_ROLE ( 'creator' ) ;
#84 = EDGE_LOOP ( 'NONE', ( #105, #287 ) ) ;
#85 = COORDINATED_UNIVERSAL_TIME_OFFSET ( 1, 0, .AHEAD. ) ;
#86 = VECTOR ( 'NONE', #185, 1000.000000000000000 ) ;
#87 = EDGE_CURVE ( 'NONE', #221, #45, #183, .T. ) ;
#88 = CARTESIAN_POINT ( 'NONE',  ( -9.000000000000000000, 0.000000000000000000, 0.000000000000000000 ) ) ;
#89 = VECTOR ( 'NONE', #166, 1000.000000000000000 ) ;
#90 = LINE ( 'NONE', #238, #86 ) ;
#91 = CARTESIAN_POINT ( 'NONE',  ( 0.000000000000000000, 0.000000000000000000, 7.000000000000000000 ) ) ;
#92 = ORIENTED_EDGE ( 'NONE', *, *, #82, .F. ) ;
#93 = CARTESIAN_POINT ( 'NONE',  ( 6.099999999999999645, 7.470345474798854293E-16, 257.0000000000000000 ) ) ;
#94 = DIRECTION ( 'NONE',  ( 1.000000000000000000, 0.000000000000000000, 0.000000000000000000 ) ) ;
#95 = DIRECTION ( 'NONE',  ( 1.000000000000000000, 0.000000000000000000, 0.000000000000000000 ) ) ;
#96 = CYLINDRICAL_SURFACE ( 'NONE', #249, 6.099999999999999645 ) ;
#97 = FACE_BOUND ( 'NONE', #84, .T. ) ;
#98 = CALENDAR_DATE ( 2022, 20, 6 ) ;
#99 = TOROIDAL_SURFACE ( 'NONE', #300, 6.299999999999998934, 0.2000000000000000111 ) ;
#100 = AXIS2_PLACEMENT_3D ( 'NONE', #58, #271, #37 ) ;
#101 = EDGE_CURVE ( 'NONE', #221, #35, #288, .T. ) ;
#102 = PLANE ( 'NONE',  #100 ) ;
#103 = AXIS2_PLACEMENT_3D ( 'NONE', #41, #182, #206 ) ;
#104 = DESIGN_CONTEXT ( 'detailed design', #209, 'design' ) ;
#105 = ORIENTED_EDGE ( 'NONE', *, *, #228, .T. ) ;
#106 = DIRECTION ( 'NONE',  ( 1.000000000000000000, 0.000000000000000000, 0.000000000000000000 ) ) ;
#107 = ORIENTED_EDGE ( 'NONE', *, *, #260, .T. ) ;
#108 = PRODUCT_DEFINITION_FORMATION_WITH_SPECIFIED_SOURCE ( 'LIBOVOLNÝ', '', #187, .NOT_KNOWN. ) ;
#109 = ORIENTED_EDGE ( 'NONE', *, *, #260, .F. ) ;
#110 = APPROVAL ( #215, 'NEURÈENÝ' ) ;
#111 = ORIENTED_EDGE ( 'NONE', *, *, #7, .F. ) ;
#112 = VERTEX_POINT ( 'NONE', #49 ) ;
#113 = EDGE_CURVE ( 'NONE', #275, #280, #128, .T. ) ;
#114 = DIRECTION ( 'NONE',  ( -0.000000000000000000, -0.000000000000000000, -1.000000000000000000 ) ) ;
#115 = PERSON_AND_ORGANIZATION_ROLE ( 'creator' ) ;
#116 = ORIENTED_EDGE ( 'NONE', *, *, #139, .F. ) ;
#117 = DATE_AND_TIME ( #295, #149 ) ;
#118 = DIRECTION ( 'NONE',  ( 1.000000000000000000, 0.000000000000000000, 0.000000000000000000 ) ) ;
#119 = DIRECTION ( 'NONE',  ( 0.000000000000000000, 0.000000000000000000, 1.000000000000000000 ) ) ;
#120 = CALENDAR_DATE ( 2022, 20, 6 ) ;
#121 = DIRECTION ( 'NONE',  ( 0.000000000000000000, 0.000000000000000000, 1.000000000000000000 ) ) ;
#122 = CARTESIAN_POINT ( 'NONE',  ( 0.000000000000000000, 0.000000000000000000, 257.0000000000000000 ) ) ;
#123 = FACE_OUTER_BOUND ( 'NONE', #230, .T. ) ;
#124 = FACE_OUTER_BOUND ( 'NONE', #164, .T. ) ;
#125 = DIRECTION ( 'NONE',  ( 0.000000000000000000, 0.000000000000000000, 1.000000000000000000 ) ) ;
#126 = EDGE_CURVE ( 'NONE', #301, #200, #252, .T. ) ;
#127 = APPROVAL_ROLE ( '' ) ;
#128 = CIRCLE ( 'NONE', #305, 6.099999999999999645 ) ;
#129 = ORIENTED_EDGE ( 'NONE', *, *, #87, .F. ) ;
#130 = AXIS2_PLACEMENT_3D ( 'NONE', #222, #195, #273 ) ;
#131 = ORIENTED_EDGE ( 'NONE', *, *, #190, .T. ) ;
#132 = CARTESIAN_POINT ( 'NONE',  ( 0.000000000000000000, 0.000000000000000000, 7.000000000000000000 ) ) ;
#133 = ORIENTED_EDGE ( 'NONE', *, *, #48, .T. ) ;
#134 = APPROVAL ( #186, 'NEURÈENÝ' ) ;
#135 = CLOSED_SHELL ( 'NONE', ( #177, #39, #60, #173, #285, #202, #161, #32, #70 ) ) ;
#136 = ORIENTED_EDGE ( 'NONE', *, *, #87, .T. ) ;
#137 = DIRECTION ( 'NONE',  ( -0.000000000000000000, -0.000000000000000000, -1.000000000000000000 ) ) ;
#138 = PERSON_AND_ORGANIZATION_ROLE ( 'design_owner' ) ;
#139 = EDGE_CURVE ( 'NONE', #301, #232, #191, .T. ) ;
#140 = CIRCLE ( 'NONE', #38, 6.099999999999999645 ) ;
#141 = DIRECTION ( 'NONE',  ( 1.000000000000000000, 0.000000000000000000, -0.000000000000000000 ) ) ;
#142 = DIRECTION ( 'NONE',  ( 1.000000000000000000, 0.000000000000000000, -0.000000000000000000 ) ) ;
#143 = PERSON_AND_ORGANIZATION ( #299, #284 ) ;
#144 = LINE ( 'NONE', #169, #170 ) ;
#145 = EDGE_CURVE ( 'NONE', #35, #112, #36, .T. ) ;
#146 = DIRECTION ( 'NONE',  ( 0.000000000000000000, 0.000000000000000000, 1.000000000000000000 ) ) ;
#147 = DIRECTION ( 'NONE',  ( -0.000000000000000000, -0.000000000000000000, -1.000000000000000000 ) ) ;
#148 = DIRECTION ( 'NONE',  ( 1.000000000000000000, 0.000000000000000000, 0.000000000000000000 ) ) ;
#149 = LOCAL_TIME ( 11, 30, 58.00000000000000000, #85 ) ;
#150 = PERSON_AND_ORGANIZATION ( #299, #284 ) ;
#151 = PLANE ( 'NONE',  #158 ) ;
#152 = PERSON_AND_ORGANIZATION ( #299, #284 ) ;
#153 = APPLICATION_PROTOCOL_DEFINITION ( 'international standard', 'config_control_design', 1994, #20 ) ;
#154 = PERSON_AND_ORGANIZATION ( #299, #284 ) ;
#155 = FACE_OUTER_BOUND ( 'NONE', #178, .T. ) ;
#156 = ADVANCED_BREP_SHAPE_REPRESENTATION ( '12fb', ( #159, #196 ), #248 ) ;
#157 = ORIENTED_EDGE ( 'NONE', *, *, #180, .F. ) ;
#158 = AXIS2_PLACEMENT_3D ( 'NONE', #245, #47, #141 ) ;
#159 = MANIFOLD_SOLID_BREP ( 'Zaoblit1', #135 ) ;
#160 = CIRCLE ( 'NONE', #239, 6.099999999999999645 ) ;
#161 = ADVANCED_FACE ( 'NONE', ( #123 ), #96, .T. ) ;
#162 = ORIENTED_EDGE ( 'NONE', *, *, #139, .T. ) ;
#163 = CARTESIAN_POINT ( 'NONE',  ( 0.000000000000000000, 0.000000000000000000, 7.000000000000000000 ) ) ;
#164 = EDGE_LOOP ( 'NONE', ( #116, #67, #11, #10 ) ) ;
#165 = DIRECTION ( 'NONE',  ( 0.000000000000000000, 0.000000000000000000, 1.000000000000000000 ) ) ;
#166 = DIRECTION ( 'NONE',  ( -0.000000000000000000, -0.000000000000000000, -1.000000000000000000 ) ) ;
#167 = CC_DESIGN_PERSON_AND_ORGANIZATION_ASSIGNMENT ( #175, #53, ( #108 ) ) ;
#168 = DIRECTION ( 'NONE',  ( 1.224646799147353207E-16, 1.000000000000000000, -0.000000000000000000 ) ) ;
#169 = CARTESIAN_POINT ( 'NONE',  ( 9.000000000000000000, 1.102182119232617714E-15, 7.000000000000000000 ) ) ;
#170 = VECTOR ( 'NONE', #147, 1000.000000000000000 ) ;
#171 = AXIS2_PLACEMENT_3D ( 'NONE', #26, #125, #94 ) ;
#172 = CARTESIAN_POINT ( 'NONE',  ( 0.000000000000000000, 0.000000000000000000, 7.000000000000000000 ) ) ;
#173 = ADVANCED_FACE ( 'NONE', ( #75 ), #294, .T. ) ;
#174 =( LENGTH_UNIT ( ) NAMED_UNIT ( * ) SI_UNIT ( .MILLI., .METRE. ) );
#175 = PERSON_AND_ORGANIZATION ( #299, #284 ) ;
#176 = CC_DESIGN_APPROVAL ( #281, ( #108 ) ) ;
#177 = ADVANCED_FACE ( 'NONE', ( #124 ), #99, .F. ) ;
#178 = EDGE_LOOP ( 'NONE', ( #136, #40 ) ) ;
#179 = ORIENTED_EDGE ( 'NONE', *, *, #113, .T. ) ;
#180 = EDGE_CURVE ( 'NONE', #45, #221, #65, .T. ) ;
#181 = CARTESIAN_POINT ( 'NONE',  ( 0.000000000000000000, 0.000000000000000000, 0.000000000000000000 ) ) ;
#182 = DIRECTION ( 'NONE',  ( 0.000000000000000000, -1.000000000000000000, 0.000000000000000000 ) ) ;
#183 = CIRCLE ( 'NONE', #262, 9.000000000000000000 ) ;
#184 = CC_DESIGN_APPROVAL ( #134, ( #12 ) ) ;
#185 = DIRECTION ( 'NONE',  ( -0.000000000000000000, -0.000000000000000000, -1.000000000000000000 ) ) ;
#186 = APPROVAL_STATUS ( 'not_yet_approved' ) ;
#187 = PRODUCT ( '12fb', '12fb', '', ( #307 ) ) ;
#188 = ORIENTED_EDGE ( 'NONE', *, *, #126, .F. ) ;
#189 = DIRECTION ( 'NONE',  ( 1.000000000000000000, 0.000000000000000000, 0.000000000000000000 ) ) ;
#190 = EDGE_CURVE ( 'NONE', #45, #112, #144, .T. ) ;
#191 = CIRCLE ( 'NONE', #171, 6.099999999999999645 ) ;
#192 = EDGE_LOOP ( 'NONE', ( #188, #109, #133, #17 ) ) ;
#193 = DIRECTION ( 'NONE',  ( -0.000000000000000000, -0.000000000000000000, -1.000000000000000000 ) ) ;
#194 = DIRECTION ( 'NONE',  ( -1.000000000000000000, 0.000000000000000000, 0.000000000000000000 ) ) ;
#195 = DIRECTION ( 'NONE',  ( 0.000000000000000000, 0.000000000000000000, 1.000000000000000000 ) ) ;
#196 = AXIS2_PLACEMENT_3D ( 'NONE', #181, #279, #106 ) ;
#197 = DIRECTION ( 'NONE',  ( -0.000000000000000000, -0.000000000000000000, -1.000000000000000000 ) ) ;
#198 = LOCAL_TIME ( 11, 30, 58.00000000000000000, #8 ) ;
#199 = COORDINATED_UNIVERSAL_TIME_OFFSET ( 1, 0, .AHEAD. ) ;
#200 = VERTEX_POINT ( 'NONE', #52 ) ;
#201 =( NAMED_UNIT ( * ) SI_UNIT ( $, .STERADIAN. ) SOLID_ANGLE_UNIT ( ) );
#202 = ADVANCED_FACE ( 'NONE', ( #74 ), #151, .F. ) ;
#203 = APPROVAL_PERSON_ORGANIZATION ( #235, #134, #259 ) ;
#204 = ORIENTED_EDGE ( 'NONE', *, *, #302, .F. ) ;
#205 = DIRECTION ( 'NONE',  ( 1.000000000000000000, 0.000000000000000000, 0.000000000000000000 ) ) ;
#206 = DIRECTION ( 'NONE',  ( 0.000000000000000000, 0.000000000000000000, -1.000000000000000000 ) ) ;
#207 = ORIENTED_EDGE ( 'NONE', *, *, #255, .F. ) ;
#208 = CARTESIAN_POINT ( 'NONE',  ( -9.000000000000000000, 0.000000000000000000, 7.000000000000000000 ) ) ;
#209 = APPLICATION_CONTEXT ( 'configuration controlled 3d designs of mechanical parts and assemblies' ) ;
#210 = ORIENTED_EDGE ( 'NONE', *, *, #302, .T. ) ;
#211 = DATE_AND_TIME ( #120, #5 ) ;
#212 = DIRECTION ( 'NONE',  ( -0.000000000000000000, -0.000000000000000000, -1.000000000000000000 ) ) ;
#213 = APPROVAL_DATE_TIME ( #117, #134 ) ;
#214 = DIRECTION ( 'NONE',  ( 1.000000000000000000, 0.000000000000000000, 0.000000000000000000 ) ) ;
#215 = APPROVAL_STATUS ( 'not_yet_approved' ) ;
#216 = AXIS2_PLACEMENT_3D ( 'NONE', #290, #165, #142 ) ;
#217 = DATE_AND_TIME ( #276, #270 ) ;
#218 = APPROVAL_ROLE ( '' ) ;
#219 = CC_DESIGN_PERSON_AND_ORGANIZATION_ASSIGNMENT ( #150, #83, ( #108 ) ) ;
#220 = DATE_TIME_ROLE ( 'classification_date' ) ;
#221 = VERTEX_POINT ( 'NONE', #208 ) ;
#222 = CARTESIAN_POINT ( 'NONE',  ( 0.000000000000000000, 0.000000000000000000, 0.000000000000000000 ) ) ;
#223 = UNCERTAINTY_MEASURE_WITH_UNIT (LENGTH_MEASURE( 1.000000000000000082E-05 ), #174, 'distance_accuracy_value', 'NONE');
#224 = AXIS2_PLACEMENT_3D ( 'NONE', #261, #114, #46 ) ;
#225 = CALENDAR_DATE ( 2022, 20, 6 ) ;
#226 = ORIENTED_EDGE ( 'NONE', *, *, #7, .T. ) ;
#227 = DIRECTION ( 'NONE',  ( 1.000000000000000000, 0.000000000000000000, 0.000000000000000000 ) ) ;
#228 = EDGE_CURVE ( 'NONE', #19, #200, #34, .T. ) ;
#229 = CIRCLE ( 'NONE', #130, 9.000000000000000000 ) ;
#230 = EDGE_LOOP ( 'NONE', ( #111, #68, #254, #162 ) ) ;
#231 = ORIENTED_EDGE ( 'NONE', *, *, #101, .F. ) ;
#232 = VERTEX_POINT ( 'NONE', #27 ) ;
#233 = PERSON_AND_ORGANIZATION ( #299, #284 ) ;
#234 = CARTESIAN_POINT ( 'NONE',  ( 6.299999999999998934, 0.000000000000000000, 7.000000000000006217 ) ) ;
#235 = PERSON_AND_ORGANIZATION ( #299, #284 ) ;
#236 = AXIS2_PLACEMENT_3D ( 'NONE', #289, #263, #95 ) ;
#237 = ORIENTED_EDGE ( 'NONE', *, *, #145, .T. ) ;
#238 = CARTESIAN_POINT ( 'NONE',  ( -6.099999999999999645, 0.000000000000000000, 257.0000000000000000 ) ) ;
#239 = AXIS2_PLACEMENT_3D ( 'NONE', #72, #265, #148 ) ;
#240 = DIRECTION ( 'NONE',  ( 1.000000000000000000, 0.000000000000000000, 0.000000000000000000 ) ) ;
#241 = CYLINDRICAL_SURFACE ( 'NONE', #224, 6.099999999999999645 ) ;
#242 = CARTESIAN_POINT ( 'NONE',  ( 0.000000000000000000, 0.000000000000000000, 0.000000000000000000 ) ) ;
#243 = CARTESIAN_POINT ( 'NONE',  ( -6.099999999999999645, 0.000000000000000000, 257.0000000000000000 ) ) ;
#244 = APPROVAL_DATE_TIME ( #9, #110 ) ;
#245 = CARTESIAN_POINT ( 'NONE',  ( 0.000000000000000000, 0.000000000000000000, 0.000000000000000000 ) ) ;
#246 = CIRCLE ( 'NONE', #103, 0.1999999999999996503 ) ;
#247 = CC_DESIGN_PERSON_AND_ORGANIZATION_ASSIGNMENT ( #233, #138, ( #187 ) ) ;
#248 =( GEOMETRIC_REPRESENTATION_CONTEXT ( 3 ) GLOBAL_UNCERTAINTY_ASSIGNED_CONTEXT ( ( #223 ) ) GLOBAL_UNIT_ASSIGNED_CONTEXT ( ( #174, #77, #201 ) ) REPRESENTATION_CONTEXT ( 'NONE', 'WORKASPACE' ) );
#249 = AXIS2_PLACEMENT_3D ( 'NONE', #122, #212, #194 ) ;
#250 = APPROVAL_DATE_TIME ( #76, #281 ) ;
#251 = PERSON_AND_ORGANIZATION_ROLE ( 'classification_officer' ) ;
#252 = CIRCLE ( 'NONE', #30, 0.1999999999999996503 ) ;
#253 = EDGE_LOOP ( 'NONE', ( #179, #59 ) ) ;
#254 = ORIENTED_EDGE ( 'NONE', *, *, #82, .T. ) ;
#255 = EDGE_CURVE ( 'NONE', #280, #275, #140, .T. ) ;
#256 = FACE_OUTER_BOUND ( 'NONE', #57, .T. ) ;
#257 = CARTESIAN_POINT ( 'NONE',  ( 0.000000000000000000, 0.000000000000000000, 7.200000000000011724 ) ) ;
#258 = CARTESIAN_POINT ( 'NONE',  ( 9.000000000000000000, 1.102182119232617714E-15, 7.000000000000000000 ) ) ;
#259 = APPROVAL_ROLE ( '' ) ;
#260 = EDGE_CURVE ( 'NONE', #232, #301, #160, .T. ) ;
#261 = CARTESIAN_POINT ( 'NONE',  ( 0.000000000000000000, 0.000000000000000000, 257.0000000000000000 ) ) ;
#262 = AXIS2_PLACEMENT_3D ( 'NONE', #91, #21, #189 ) ;
#263 = DIRECTION ( 'NONE',  ( 0.000000000000000000, 0.000000000000000000, 1.000000000000000000 ) ) ;
#264 = FACE_OUTER_BOUND ( 'NONE', #253, .T. ) ;
#265 = DIRECTION ( 'NONE',  ( 0.000000000000000000, 0.000000000000000000, 1.000000000000000000 ) ) ;
#266 = DIRECTION ( 'NONE',  ( -0.000000000000000000, -0.000000000000000000, -1.000000000000000000 ) ) ;
#267 = CARTESIAN_POINT ( 'NONE',  ( 0.000000000000000000, 0.000000000000000000, 7.000000000000000000 ) ) ;
#268 = COORDINATED_UNIVERSAL_TIME_OFFSET ( 1, 0, .AHEAD. ) ;
#269 = DIRECTION ( 'NONE',  ( 1.000000000000000000, 0.000000000000000000, 0.000000000000000000 ) ) ;
#270 = LOCAL_TIME ( 11, 30, 58.00000000000000000, #33 ) ;
#271 = DIRECTION ( 'NONE',  ( 0.000000000000000000, 0.000000000000000000, 1.000000000000000000 ) ) ;
#272 = CIRCLE ( 'NONE', #303, 6.299999999999998934 ) ;
#273 = DIRECTION ( 'NONE',  ( 1.000000000000000000, 0.000000000000000000, 0.000000000000000000 ) ) ;
#274 = SECURITY_CLASSIFICATION_LEVEL ( 'unclassified' ) ;
#275 = VERTEX_POINT ( 'NONE', #243 ) ;
#276 = CALENDAR_DATE ( 2022, 20, 6 ) ;
#277 = ORIENTED_EDGE ( 'NONE', *, *, #101, .T. ) ;
#278 = AXIS2_PLACEMENT_3D ( 'NONE', #267, #193, #240 ) ;
#279 = DIRECTION ( 'NONE',  ( 0.000000000000000000, 0.000000000000000000, 1.000000000000000000 ) ) ;
#280 = VERTEX_POINT ( 'NONE', #6 ) ;
#281 = APPROVAL ( #296, 'NEURÈENÝ' ) ;
#282 = FACE_OUTER_BOUND ( 'NONE', #13, .T. ) ;
#283 = APPLICATION_PROTOCOL_DEFINITION ( 'international standard', 'config_control_design', 1994, #209 ) ;
#284 = ORGANIZATION ( 'NEURÈENÝ', 'NEURÈENÝ', '' ) ;
#285 = ADVANCED_FACE ( 'NONE', ( #97, #155 ), #102, .T. ) ;
#286 = FACE_OUTER_BOUND ( 'NONE', #192, .T. ) ;
#287 = ORIENTED_EDGE ( 'NONE', *, *, #297, .T. ) ;
#288 = LINE ( 'NONE', #71, #89 ) ;
#289 = CARTESIAN_POINT ( 'NONE',  ( 0.000000000000000000, 0.000000000000000000, 7.000000000000000000 ) ) ;
#290 = CARTESIAN_POINT ( 'NONE',  ( 0.000000000000000000, 0.000000000000000000, 257.0000000000000000 ) ) ;
#291 = CARTESIAN_POINT ( 'NONE',  ( 0.000000000000000000, 0.000000000000000000, 7.200000000000011724 ) ) ;
#292 = CC_DESIGN_PERSON_AND_ORGANIZATION_ASSIGNMENT ( #79, #251, ( #66 ) ) ;
#293 = CARTESIAN_POINT ( 'NONE',  ( 0.000000000000000000, 0.000000000000000000, 257.0000000000000000 ) ) ;
#294 = CYLINDRICAL_SURFACE ( 'NONE', #61, 9.000000000000000000 ) ;
#295 = CALENDAR_DATE ( 2022, 20, 6 ) ;
#296 = APPROVAL_STATUS ( 'not_yet_approved' ) ;
#297 = EDGE_CURVE ( 'NONE', #200, #19, #272, .T. ) ;
#298 = APPROVAL_PERSON_ORGANIZATION ( #152, #281, #218 ) ;
#299 = PERSON ( 'NEURÈENÝ', 'NEURÈENÝ', 'NEURÈENÝ', ('NEURÈENÝ'), ('NEURÈENÝ'), ('NEURÈENÝ') ) ;
#300 = AXIS2_PLACEMENT_3D ( 'NONE', #291, #121, #269 ) ;
#301 = VERTEX_POINT ( 'NONE', #81 ) ;
#302 = EDGE_CURVE ( 'NONE', #112, #35, #229, .T. ) ;
#303 = AXIS2_PLACEMENT_3D ( 'NONE', #132, #197, #227 ) ;
#304 = ORIENTED_EDGE ( 'NONE', *, *, #145, .F. ) ;
#305 = AXIS2_PLACEMENT_3D ( 'NONE', #23, #119, #3 ) ;
#306 = PLANE ( 'NONE',  #216 ) ;
#307 = MECHANICAL_CONTEXT ( 'NONE', #20, 'mechanical' ) ;
ENDSEC;
END-ISO-10303-21;
