ISO-10303-21;
HEADER;
FILE_DESCRIPTION (( 'STEP AP203' ),
    '1' );
FILE_NAME ('16bf.STEP',
    '2022-06-20T09:33:09',
    ( '' ),
    ( '' ),
    'SwSTEP 2.0',
    'SolidWorks 2019',
    '' );
FILE_SCHEMA (( 'CONFIG_CONTROL_DESIGN' ));
ENDSEC;

DATA;
#1 = DIRECTION ( 'NONE',  ( 1.224646799147353207E-16, 1.000000000000000000, -0.000000000000000000 ) ) ;
#2 = CARTESIAN_POINT ( 'NONE',  ( -9.000000000000000000, 0.000000000000000000, 7.000000000000000000 ) ) ;
#3 = DIRECTION ( 'NONE',  ( 0.000000000000000000, 0.000000000000000000, 1.000000000000000000 ) ) ;
#4 = EDGE_CURVE ( 'NONE', #212, #254, #154, .T. ) ;
#5 = FACE_OUTER_BOUND ( 'NONE', #143, .T. ) ;
#6 = FACE_OUTER_BOUND ( 'NONE', #186, .T. ) ;
#7 = MANIFOLD_SOLID_BREP ( 'Zaoblit1', #122 ) ;
#8 = DIRECTION ( 'NONE',  ( -0.000000000000000000, -0.000000000000000000, -1.000000000000000000 ) ) ;
#9 = VECTOR ( 'NONE', #266, 1000.000000000000000 ) ;
#10 = PRODUCT ( '16bf', '16bf', '', ( #85 ) ) ;
#11 = DIRECTION ( 'NONE',  ( 1.000000000000000000, 0.000000000000000000, 0.000000000000000000 ) ) ;
#12 = AXIS2_PLACEMENT_3D ( 'NONE', #36, #231, #178 ) ;
#13 = FACE_BOUND ( 'NONE', #89, .T. ) ;
#14 = PERSON_AND_ORGANIZATION ( #230, #159 ) ;
#15 = DIRECTION ( 'NONE',  ( 0.000000000000000000, 0.000000000000000000, 1.000000000000000000 ) ) ;
#16 = ORIENTED_EDGE ( 'NONE', *, *, #203, .F. ) ;
#17 = EDGE_CURVE ( 'NONE', #92, #212, #45, .T. ) ;
#18 = ORIENTED_EDGE ( 'NONE', *, *, #150, .F. ) ;
#19 = ORIENTED_EDGE ( 'NONE', *, *, #162, .T. ) ;
#20 = VECTOR ( 'NONE', #8, 1000.000000000000000 ) ;
#21 = VERTEX_POINT ( 'NONE', #265 ) ;
#22 = EDGE_CURVE ( 'NONE', #238, #234, #74, .T. ) ;
#23 = CARTESIAN_POINT ( 'NONE',  ( 0.000000000000000000, 0.000000000000000000, 207.0000000000000284 ) ) ;
#24 = DIRECTION ( 'NONE',  ( 1.000000000000000000, 0.000000000000000000, 0.000000000000000000 ) ) ;
#25 = PRODUCT_DEFINITION ( 'NEZNÁMÝ', '', #170, #107 ) ;
#26 = VECTOR ( 'NONE', #193, 1000.000000000000000 ) ;
#27 = DIRECTION ( 'NONE',  ( 1.000000000000000000, 0.000000000000000000, 0.000000000000000000 ) ) ;
#28 = CIRCLE ( 'NONE', #164, 6.000000000000000888 ) ;
#29 = APPROVAL_DATE_TIME ( #286, #61 ) ;
#30 = DIRECTION ( 'NONE',  ( 1.000000000000000000, 0.000000000000000000, 0.000000000000000000 ) ) ;
#31 = DIRECTION ( 'NONE',  ( 1.000000000000000000, 0.000000000000000000, 0.000000000000000000 ) ) ;
#32 = ADVANCED_FACE ( 'NONE', ( #126 ), #68, .T. ) ;
#33 = AXIS2_PLACEMENT_3D ( 'NONE', #219, #47, #242 ) ;
#34 = FACE_OUTER_BOUND ( 'NONE', #260, .T. ) ;
#35 = CC_DESIGN_PERSON_AND_ORGANIZATION_ASSIGNMENT ( #224, #199, ( #170 ) ) ;
#36 = CARTESIAN_POINT ( 'NONE',  ( 0.000000000000000000, 0.000000000000000000, 7.200000000000011724 ) ) ;
#37 = CARTESIAN_POINT ( 'NONE',  ( 0.000000000000000000, 0.000000000000000000, 7.000000000000000000 ) ) ;
#38 = APPLICATION_CONTEXT ( 'configuration controlled 3d designs of mechanical parts and assemblies' ) ;
#39 = ORIENTED_EDGE ( 'NONE', *, *, #218, .F. ) ;
#40 = ORIENTED_EDGE ( 'NONE', *, *, #83, .F. ) ;
#41 = ORIENTED_EDGE ( 'NONE', *, *, #162, .F. ) ;
#42 = ORIENTED_EDGE ( 'NONE', *, *, #150, .T. ) ;
#43 = TOROIDAL_SURFACE ( 'NONE', #33, 6.200000000000001066, 0.2000000000000000111 ) ;
#44 = CC_DESIGN_SECURITY_CLASSIFICATION ( #197, ( #170 ) ) ;
#45 = LINE ( 'NONE', #2, #261 ) ;
#46 = CARTESIAN_POINT ( 'NONE',  ( 0.000000000000000000, 0.000000000000000000, 207.0000000000000284 ) ) ;
#47 = DIRECTION ( 'NONE',  ( 0.000000000000000000, 0.000000000000000000, 1.000000000000000000 ) ) ;
#48 = CIRCLE ( 'NONE', #229, 9.000000000000000000 ) ;
#49 = DIRECTION ( 'NONE',  ( 0.000000000000000000, 0.000000000000000000, 1.000000000000000000 ) ) ;
#50 = CARTESIAN_POINT ( 'NONE',  ( -6.200000000000001066, 7.592810154713590821E-16, 7.200000000000011724 ) ) ;
#51 = APPLICATION_CONTEXT ( 'configuration controlled 3d designs of mechanical parts and assemblies' ) ;
#52 = CARTESIAN_POINT ( 'NONE',  ( 0.000000000000000000, 0.000000000000000000, 7.000000000000000000 ) ) ;
#53 = SHAPE_DEFINITION_REPRESENTATION ( #292, #106 ) ;
#54 = CYLINDRICAL_SURFACE ( 'NONE', #69, 9.000000000000000000 ) ;
#55 = CC_DESIGN_APPROVAL ( #90, ( #25 ) ) ;
#56 = DIRECTION ( 'NONE',  ( -1.000000000000000000, 0.000000000000000000, 0.000000000000000000 ) ) ;
#57 = ADVANCED_FACE ( 'NONE', ( #241 ), #244, .T. ) ;
#58 = DIRECTION ( 'NONE',  ( 1.000000000000000000, 0.000000000000000000, -0.000000000000000000 ) ) ;
#59 = AXIS2_PLACEMENT_3D ( 'NONE', #70, #225, #149 ) ;
#60 = LINE ( 'NONE', #274, #20 ) ;
#61 = APPROVAL ( #237, 'NEURÈENÝ' ) ;
#62 = ORIENTED_EDGE ( 'NONE', *, *, #17, .T. ) ;
#63 = DATE_TIME_ROLE ( 'creation_date' ) ;
#64 = ORIENTED_EDGE ( 'NONE', *, *, #137, .T. ) ;
#65 = CALENDAR_DATE ( 2022, 20, 6 ) ;
#66 = ORIENTED_EDGE ( 'NONE', *, *, #71, .F. ) ;
#67 = APPROVAL_DATE_TIME ( #118, #94 ) ;
#68 = CYLINDRICAL_SURFACE ( 'NONE', #59, 9.000000000000000000 ) ;
#69 = AXIS2_PLACEMENT_3D ( 'NONE', #291, #81, #56 ) ;
#70 = CARTESIAN_POINT ( 'NONE',  ( 0.000000000000000000, 0.000000000000000000, 7.000000000000000000 ) ) ;
#71 = EDGE_CURVE ( 'NONE', #234, #116, #129, .T. ) ;
#72 = DIRECTION ( 'NONE',  ( 0.000000000000000000, 0.000000000000000000, 1.000000000000000000 ) ) ;
#73 = CARTESIAN_POINT ( 'NONE',  ( 0.000000000000000000, 0.000000000000000000, 0.000000000000000000 ) ) ;
#74 = CIRCLE ( 'NONE', #130, 6.000000000000000888 ) ;
#75 = DIRECTION ( 'NONE',  ( -0.000000000000000000, -0.000000000000000000, -1.000000000000000000 ) ) ;
#76 = APPROVAL_PERSON_ORGANIZATION ( #112, #90, #251 ) ;
#77 = ADVANCED_FACE ( 'NONE', ( #5 ), #43, .F. ) ;
#78 = FACE_OUTER_BOUND ( 'NONE', #139, .T. ) ;
#79 = PERSON_AND_ORGANIZATION ( #230, #159 ) ;
#80 = DIRECTION ( 'NONE',  ( 0.000000000000000000, 0.000000000000000000, 1.000000000000000000 ) ) ;
#81 = DIRECTION ( 'NONE',  ( -0.000000000000000000, -0.000000000000000000, -1.000000000000000000 ) ) ;
#82 = EDGE_CURVE ( 'NONE', #145, #92, #48, .T. ) ;
#83 = EDGE_CURVE ( 'NONE', #254, #212, #192, .T. ) ;
#84 = CIRCLE ( 'NONE', #104, 6.000000000000000888 ) ;
#85 = MECHANICAL_CONTEXT ( 'NONE', #51, 'mechanical' ) ;
#86 = ORIENTED_EDGE ( 'NONE', *, *, #282, .F. ) ;
#87 = ORIENTED_EDGE ( 'NONE', *, *, #71, .T. ) ;
#88 = PERSON_AND_ORGANIZATION_ROLE ( 'design_owner' ) ;
#89 = EDGE_LOOP ( 'NONE', ( #160, #42 ) ) ;
#90 = APPROVAL ( #280, 'NEURÈENÝ' ) ;
#91 = APPROVAL_ROLE ( '' ) ;
#92 = VERTEX_POINT ( 'NONE', #169 ) ;
#93 = EDGE_LOOP ( 'NONE', ( #299, #40 ) ) ;
#94 = APPROVAL ( #301, 'NEURÈENÝ' ) ;
#95 = CARTESIAN_POINT ( 'NONE',  ( 6.200000000000001066, 0.000000000000000000, 7.200000000000011724 ) ) ;
#96 = AXIS2_PLACEMENT_3D ( 'NONE', #23, #3, #100 ) ;
#97 = COORDINATED_UNIVERSAL_TIME_OFFSET ( 1, 0, .AHEAD. ) ;
#98 = AXIS2_PLACEMENT_3D ( 'NONE', #198, #105, #184 ) ;
#99 = DIRECTION ( 'NONE',  ( 0.000000000000000000, 0.000000000000000000, 1.000000000000000000 ) ) ;
#100 = DIRECTION ( 'NONE',  ( 1.000000000000000000, 0.000000000000000000, -0.000000000000000000 ) ) ;
#101 = CARTESIAN_POINT ( 'NONE',  ( 0.000000000000000000, 0.000000000000000000, 7.200000000000011724 ) ) ;
#102 = ADVANCED_FACE ( 'NONE', ( #6 ), #173, .T. ) ;
#103 = CARTESIAN_POINT ( 'NONE',  ( 0.000000000000000000, 0.000000000000000000, 7.200000000000011724 ) ) ;
#104 = AXIS2_PLACEMENT_3D ( 'NONE', #200, #80, #246 ) ;
#105 = DIRECTION ( 'NONE',  ( 0.000000000000000000, 0.000000000000000000, 1.000000000000000000 ) ) ;
#106 = ADVANCED_BREP_SHAPE_REPRESENTATION ( '16bf', ( #7, #98 ), #111 ) ;
#107 = DESIGN_CONTEXT ( 'detailed design', #38, 'design' ) ;
#108 = DIRECTION ( 'NONE',  ( 0.000000000000000000, -1.000000000000000000, 0.000000000000000000 ) ) ;
#109 = PLANE ( 'NONE',  #136 ) ;
#110 = VERTEX_POINT ( 'NONE', #243 ) ;
#111 =( GEOMETRIC_REPRESENTATION_CONTEXT ( 3 ) GLOBAL_UNCERTAINTY_ASSIGNED_CONTEXT ( ( #208 ) ) GLOBAL_UNIT_ASSIGNED_CONTEXT ( ( #273, #134, #135 ) ) REPRESENTATION_CONTEXT ( 'NONE', 'WORKASPACE' ) );
#112 = PERSON_AND_ORGANIZATION ( #230, #159 ) ;
#113 = EDGE_LOOP ( 'NONE', ( #304, #115, #62, #161 ) ) ;
#114 = CALENDAR_DATE ( 2022, 20, 6 ) ;
#115 = ORIENTED_EDGE ( 'NONE', *, *, #206, .F. ) ;
#116 = VERTEX_POINT ( 'NONE', #269 ) ;
#117 = CIRCLE ( 'NONE', #262, 0.1999999999999996503 ) ;
#118 = DATE_AND_TIME ( #172, #201 ) ;
#119 = ORIENTED_EDGE ( 'NONE', *, *, #82, .F. ) ;
#120 = ADVANCED_FACE ( 'NONE', ( #267 ), #147, .F. ) ;
#121 = LINE ( 'NONE', #217, #26 ) ;
#122 = CLOSED_SHELL ( 'NONE', ( #272, #57, #264, #32, #228, #120, #293, #102, #77 ) ) ;
#123 = CIRCLE ( 'NONE', #220, 6.000000000000000888 ) ;
#124 = CARTESIAN_POINT ( 'NONE',  ( 6.000000000000000888, 7.347880794884120722E-16, 207.0000000000000284 ) ) ;
#125 = AXIS2_PLACEMENT_3D ( 'NONE', #50, #1, #127 ) ;
#126 = FACE_OUTER_BOUND ( 'NONE', #113, .T. ) ;
#127 = DIRECTION ( 'NONE',  ( -1.000000000000000000, 1.224646799147353454E-16, 0.000000000000000000 ) ) ;
#128 = CC_DESIGN_PERSON_AND_ORGANIZATION_ASSIGNMENT ( #79, #249, ( #170 ) ) ;
#129 = LINE ( 'NONE', #124, #9 ) ;
#130 = AXIS2_PLACEMENT_3D ( 'NONE', #284, #72, #24 ) ;
#131 = AXIS2_PLACEMENT_3D ( 'NONE', #46, #283, #148 ) ;
#132 = CIRCLE ( 'NONE', #226, 9.000000000000000000 ) ;
#133 = CIRCLE ( 'NONE', #290, 6.200000000000001066 ) ;
#134 =( NAMED_UNIT ( * ) PLANE_ANGLE_UNIT ( ) SI_UNIT ( $, .RADIAN. ) );
#135 =( NAMED_UNIT ( * ) SI_UNIT ( $, .STERADIAN. ) SOLID_ANGLE_UNIT ( ) );
#136 = AXIS2_PLACEMENT_3D ( 'NONE', #153, #294, #58 ) ;
#137 = EDGE_CURVE ( 'NONE', #116, #110, #123, .T. ) ;
#138 = COORDINATED_UNIVERSAL_TIME_OFFSET ( 1, 0, .AHEAD. ) ;
#139 = EDGE_LOOP ( 'NONE', ( #119, #163, #303, #191 ) ) ;
#140 = DATE_TIME_ROLE ( 'classification_date' ) ;
#141 = APPROVAL_DATE_TIME ( #233, #90 ) ;
#142 = EDGE_CURVE ( 'NONE', #110, #210, #257, .T. ) ;
#143 = EDGE_LOOP ( 'NONE', ( #215, #252, #207, #18 ) ) ;
#144 = PERSON_AND_ORGANIZATION ( #230, #159 ) ;
#145 = VERTEX_POINT ( 'NONE', #223 ) ;
#146 = APPROVAL_PERSON_ORGANIZATION ( #144, #61, #91 ) ;
#147 = PLANE ( 'NONE',  #255 ) ;
#148 = DIRECTION ( 'NONE',  ( -1.000000000000000000, 0.000000000000000000, 0.000000000000000000 ) ) ;
#149 = DIRECTION ( 'NONE',  ( -1.000000000000000000, 0.000000000000000000, 0.000000000000000000 ) ) ;
#150 = EDGE_CURVE ( 'NONE', #210, #21, #295, .T. ) ;
#151 = DIRECTION ( 'NONE',  ( 1.000000000000000000, 0.000000000000000000, 0.000000000000000000 ) ) ;
#152 = DIRECTION ( 'NONE',  ( 1.000000000000000000, 0.000000000000000000, -0.000000000000000000 ) ) ;
#153 = CARTESIAN_POINT ( 'NONE',  ( 0.000000000000000000, 0.000000000000000000, 7.000000000000000000 ) ) ;
#154 = CIRCLE ( 'NONE', #213, 9.000000000000000000 ) ;
#155 = CC_DESIGN_DATE_AND_TIME_ASSIGNMENT ( #187, #63, ( #25 ) ) ;
#156 = CARTESIAN_POINT ( 'NONE',  ( 9.000000000000000000, 1.102182119232617714E-15, 0.000000000000000000 ) ) ;
#157 = CYLINDRICAL_SURFACE ( 'NONE', #180, 6.000000000000000888 ) ;
#158 = DIRECTION ( 'NONE',  ( 1.000000000000000000, 0.000000000000000000, 0.000000000000000000 ) ) ;
#159 = ORGANIZATION ( 'NEURÈENÝ', 'NEURÈENÝ', '' ) ;
#160 = ORIENTED_EDGE ( 'NONE', *, *, #282, .T. ) ;
#161 = ORIENTED_EDGE ( 'NONE', *, *, #4, .T. ) ;
#162 = EDGE_CURVE ( 'NONE', #110, #116, #28, .T. ) ;
#163 = ORIENTED_EDGE ( 'NONE', *, *, #190, .T. ) ;
#164 = AXIS2_PLACEMENT_3D ( 'NONE', #103, #263, #240 ) ;
#165 = AXIS2_PLACEMENT_3D ( 'NONE', #196, #289, #31 ) ;
#166 = CALENDAR_DATE ( 2022, 20, 6 ) ;
#167 = ORIENTED_EDGE ( 'NONE', *, *, #247, .T. ) ;
#168 = ORIENTED_EDGE ( 'NONE', *, *, #82, .T. ) ;
#169 = CARTESIAN_POINT ( 'NONE',  ( -9.000000000000000000, 0.000000000000000000, 7.000000000000000000 ) ) ;
#170 = PRODUCT_DEFINITION_FORMATION_WITH_SPECIFIED_SOURCE ( 'LIBOVOLNÝ', '', #10, .NOT_KNOWN. ) ;
#171 = CARTESIAN_POINT ( 'NONE',  ( 0.000000000000000000, 0.000000000000000000, 7.000000000000000000 ) ) ;
#172 = CALENDAR_DATE ( 2022, 20, 6 ) ;
#173 = PLANE ( 'NONE',  #96 ) ;
#174 = PRODUCT_RELATED_PRODUCT_CATEGORY ( 'detail', '', ( #10 ) ) ;
#175 = DIRECTION ( 'NONE',  ( 0.000000000000000000, 0.000000000000000000, 1.000000000000000000 ) ) ;
#176 = DIRECTION ( 'NONE',  ( 0.000000000000000000, 0.000000000000000000, 1.000000000000000000 ) ) ;
#177 = CC_DESIGN_PERSON_AND_ORGANIZATION_ASSIGNMENT ( #253, #300, ( #197 ) ) ;
#178 = DIRECTION ( 'NONE',  ( 1.000000000000000000, 0.000000000000000000, 0.000000000000000000 ) ) ;
#179 = CARTESIAN_POINT ( 'NONE',  ( -6.200000000000001066, 7.592810154713590821E-16, 7.000000000000006217 ) ) ;
#180 = AXIS2_PLACEMENT_3D ( 'NONE', #181, #248, #227 ) ;
#181 = CARTESIAN_POINT ( 'NONE',  ( 0.000000000000000000, 0.000000000000000000, 207.0000000000000284 ) ) ;
#182 = PERSON_AND_ORGANIZATION ( #230, #159 ) ;
#183 = DATE_AND_TIME ( #166, #276 ) ;
#184 = DIRECTION ( 'NONE',  ( 1.000000000000000000, 0.000000000000000000, 0.000000000000000000 ) ) ;
#185 = ORIENTED_EDGE ( 'NONE', *, *, #247, .F. ) ;
#186 = EDGE_LOOP ( 'NONE', ( #277, #167 ) ) ;
#187 = DATE_AND_TIME ( #211, #239 ) ;
#188 = EDGE_LOOP ( 'NONE', ( #66, #236, #258, #19 ) ) ;
#189 = COORDINATED_UNIVERSAL_TIME_OFFSET ( 1, 0, .AHEAD. ) ;
#190 = EDGE_CURVE ( 'NONE', #145, #254, #121, .T. ) ;
#191 = ORIENTED_EDGE ( 'NONE', *, *, #17, .F. ) ;
#192 = CIRCLE ( 'NONE', #235, 9.000000000000000000 ) ;
#193 = DIRECTION ( 'NONE',  ( -0.000000000000000000, -0.000000000000000000, -1.000000000000000000 ) ) ;
#194 = CARTESIAN_POINT ( 'NONE',  ( 0.000000000000000000, 0.000000000000000000, 0.000000000000000000 ) ) ;
#195 = CARTESIAN_POINT ( 'NONE',  ( 0.000000000000000000, 0.000000000000000000, 0.000000000000000000 ) ) ;
#196 = CARTESIAN_POINT ( 'NONE',  ( 0.000000000000000000, 0.000000000000000000, 7.000000000000000000 ) ) ;
#197 = SECURITY_CLASSIFICATION ( '', '', #232 ) ;
#198 = CARTESIAN_POINT ( 'NONE',  ( 0.000000000000000000, 0.000000000000000000, 0.000000000000000000 ) ) ;
#199 = PERSON_AND_ORGANIZATION_ROLE ( 'creator' ) ;
#200 = CARTESIAN_POINT ( 'NONE',  ( 0.000000000000000000, 0.000000000000000000, 207.0000000000000284 ) ) ;
#201 = LOCAL_TIME ( 11, 33, 9.000000000000000000, #97 ) ;
#202 = CARTESIAN_POINT ( 'NONE',  ( -6.000000000000000888, 0.000000000000000000, 207.0000000000000284 ) ) ;
#203 = EDGE_CURVE ( 'NONE', #116, #21, #117, .T. ) ;
#204 = CARTESIAN_POINT ( 'NONE',  ( -9.000000000000000000, 0.000000000000000000, 0.000000000000000000 ) ) ;
#205 = CC_DESIGN_APPROVAL ( #61, ( #170 ) ) ;
#206 = EDGE_CURVE ( 'NONE', #92, #145, #132, .T. ) ;
#207 = ORIENTED_EDGE ( 'NONE', *, *, #203, .T. ) ;
#208 = UNCERTAINTY_MEASURE_WITH_UNIT (LENGTH_MEASURE( 1.000000000000000082E-05 ), #273, 'distance_accuracy_value', 'NONE');
#209 = PERSON_AND_ORGANIZATION ( #230, #159 ) ;
#210 = VERTEX_POINT ( 'NONE', #179 ) ;
#211 = CALENDAR_DATE ( 2022, 20, 6 ) ;
#212 = VERTEX_POINT ( 'NONE', #204 ) ;
#213 = AXIS2_PLACEMENT_3D ( 'NONE', #73, #49, #222 ) ;
#214 = APPLICATION_PROTOCOL_DEFINITION ( 'international standard', 'config_control_design', 1994, #38 ) ;
#215 = ORIENTED_EDGE ( 'NONE', *, *, #142, .F. ) ;
#216 = EDGE_LOOP ( 'NONE', ( #185, #87, #64, #39 ) ) ;
#217 = CARTESIAN_POINT ( 'NONE',  ( 9.000000000000000000, 1.102182119232617714E-15, 7.000000000000000000 ) ) ;
#218 = EDGE_CURVE ( 'NONE', #238, #110, #60, .T. ) ;
#219 = CARTESIAN_POINT ( 'NONE',  ( 0.000000000000000000, 0.000000000000000000, 7.200000000000011724 ) ) ;
#220 = AXIS2_PLACEMENT_3D ( 'NONE', #101, #175, #30 ) ;
#221 = LOCAL_TIME ( 11, 33, 9.000000000000000000, #138 ) ;
#222 = DIRECTION ( 'NONE',  ( 1.000000000000000000, 0.000000000000000000, 0.000000000000000000 ) ) ;
#223 = CARTESIAN_POINT ( 'NONE',  ( 9.000000000000000000, 1.102182119232617714E-15, 7.000000000000000000 ) ) ;
#224 = PERSON_AND_ORGANIZATION ( #230, #159 ) ;
#225 = DIRECTION ( 'NONE',  ( -0.000000000000000000, -0.000000000000000000, -1.000000000000000000 ) ) ;
#226 = AXIS2_PLACEMENT_3D ( 'NONE', #37, #15, #11 ) ;
#227 = DIRECTION ( 'NONE',  ( -1.000000000000000000, 0.000000000000000000, 0.000000000000000000 ) ) ;
#228 = ADVANCED_FACE ( 'NONE', ( #13, #34 ), #109, .T. ) ;
#229 = AXIS2_PLACEMENT_3D ( 'NONE', #171, #99, #151 ) ;
#230 = PERSON ( 'NEURÈENÝ', 'NEURÈENÝ', 'NEURÈENÝ', ('NEURÈENÝ'), ('NEURÈENÝ'), ('NEURÈENÝ') ) ;
#231 = DIRECTION ( 'NONE',  ( 0.000000000000000000, 0.000000000000000000, 1.000000000000000000 ) ) ;
#232 = SECURITY_CLASSIFICATION_LEVEL ( 'unclassified' ) ;
#233 = DATE_AND_TIME ( #114, #221 ) ;
#234 = VERTEX_POINT ( 'NONE', #297 ) ;
#235 = AXIS2_PLACEMENT_3D ( 'NONE', #194, #176, #27 ) ;
#236 = ORIENTED_EDGE ( 'NONE', *, *, #22, .F. ) ;
#237 = APPROVAL_STATUS ( 'not_yet_approved' ) ;
#238 = VERTEX_POINT ( 'NONE', #202 ) ;
#239 = LOCAL_TIME ( 11, 33, 9.000000000000000000, #305 ) ;
#240 = DIRECTION ( 'NONE',  ( 1.000000000000000000, 0.000000000000000000, 0.000000000000000000 ) ) ;
#241 = FACE_OUTER_BOUND ( 'NONE', #216, .T. ) ;
#242 = DIRECTION ( 'NONE',  ( 1.000000000000000000, 0.000000000000000000, 0.000000000000000000 ) ) ;
#243 = CARTESIAN_POINT ( 'NONE',  ( -6.000000000000000888, 0.000000000000000000, 7.200000000000011724 ) ) ;
#244 = CYLINDRICAL_SURFACE ( 'NONE', #131, 6.000000000000000888 ) ;
#245 = DIRECTION ( 'NONE',  ( -0.000000000000000000, -0.000000000000000000, -1.000000000000000000 ) ) ;
#246 = DIRECTION ( 'NONE',  ( 1.000000000000000000, 0.000000000000000000, 0.000000000000000000 ) ) ;
#247 = EDGE_CURVE ( 'NONE', #234, #238, #84, .T. ) ;
#248 = DIRECTION ( 'NONE',  ( -0.000000000000000000, -0.000000000000000000, -1.000000000000000000 ) ) ;
#249 = PERSON_AND_ORGANIZATION_ROLE ( 'design_supplier' ) ;
#250 = CC_DESIGN_APPROVAL ( #94, ( #197 ) ) ;
#251 = APPROVAL_ROLE ( '' ) ;
#252 = ORIENTED_EDGE ( 'NONE', *, *, #137, .F. ) ;
#253 = PERSON_AND_ORGANIZATION ( #230, #159 ) ;
#254 = VERTEX_POINT ( 'NONE', #156 ) ;
#255 = AXIS2_PLACEMENT_3D ( 'NONE', #195, #287, #152 ) ;
#256 = COORDINATED_UNIVERSAL_TIME_OFFSET ( 1, 0, .AHEAD. ) ;
#257 = CIRCLE ( 'NONE', #125, 0.1999999999999996503 ) ;
#258 = ORIENTED_EDGE ( 'NONE', *, *, #218, .T. ) ;
#259 = CC_DESIGN_PERSON_AND_ORGANIZATION_ASSIGNMENT ( #182, #88, ( #10 ) ) ;
#260 = EDGE_LOOP ( 'NONE', ( #281, #168 ) ) ;
#261 = VECTOR ( 'NONE', #75, 1000.000000000000000 ) ;
#262 = AXIS2_PLACEMENT_3D ( 'NONE', #95, #108, #270 ) ;
#263 = DIRECTION ( 'NONE',  ( 0.000000000000000000, 0.000000000000000000, 1.000000000000000000 ) ) ;
#264 = ADVANCED_FACE ( 'NONE', ( #78 ), #54, .T. ) ;
#265 = CARTESIAN_POINT ( 'NONE',  ( 6.200000000000001066, 0.000000000000000000, 7.000000000000006217 ) ) ;
#266 = DIRECTION ( 'NONE',  ( -0.000000000000000000, -0.000000000000000000, -1.000000000000000000 ) ) ;
#267 = FACE_OUTER_BOUND ( 'NONE', #93, .T. ) ;
#268 = APPROVAL_PERSON_ORGANIZATION ( #14, #94, #298 ) ;
#269 = CARTESIAN_POINT ( 'NONE',  ( 6.000000000000000888, 7.347880794884120722E-16, 7.200000000000011724 ) ) ;
#270 = DIRECTION ( 'NONE',  ( 0.000000000000000000, 0.000000000000000000, -1.000000000000000000 ) ) ;
#271 = FACE_OUTER_BOUND ( 'NONE', #307, .T. ) ;
#272 = ADVANCED_FACE ( 'NONE', ( #271 ), #306, .F. ) ;
#273 =( LENGTH_UNIT ( ) NAMED_UNIT ( * ) SI_UNIT ( .MILLI., .METRE. ) );
#274 = CARTESIAN_POINT ( 'NONE',  ( -6.000000000000000888, 0.000000000000000000, 207.0000000000000284 ) ) ;
#275 = APPLICATION_PROTOCOL_DEFINITION ( 'international standard', 'config_control_design', 1994, #51 ) ;
#276 = LOCAL_TIME ( 11, 33, 9.000000000000000000, #256 ) ;
#277 = ORIENTED_EDGE ( 'NONE', *, *, #22, .T. ) ;
#278 = CC_DESIGN_PERSON_AND_ORGANIZATION_ASSIGNMENT ( #209, #302, ( #25 ) ) ;
#279 = ORIENTED_EDGE ( 'NONE', *, *, #142, .T. ) ;
#280 = APPROVAL_STATUS ( 'not_yet_approved' ) ;
#281 = ORIENTED_EDGE ( 'NONE', *, *, #206, .T. ) ;
#282 = EDGE_CURVE ( 'NONE', #21, #210, #133, .T. ) ;
#283 = DIRECTION ( 'NONE',  ( -0.000000000000000000, -0.000000000000000000, -1.000000000000000000 ) ) ;
#284 = CARTESIAN_POINT ( 'NONE',  ( 0.000000000000000000, 0.000000000000000000, 207.0000000000000284 ) ) ;
#285 = LOCAL_TIME ( 11, 33, 9.000000000000000000, #189 ) ;
#286 = DATE_AND_TIME ( #65, #285 ) ;
#287 = DIRECTION ( 'NONE',  ( 0.000000000000000000, 0.000000000000000000, 1.000000000000000000 ) ) ;
#288 = CC_DESIGN_DATE_AND_TIME_ASSIGNMENT ( #183, #140, ( #197 ) ) ;
#289 = DIRECTION ( 'NONE',  ( -0.000000000000000000, -0.000000000000000000, -1.000000000000000000 ) ) ;
#290 = AXIS2_PLACEMENT_3D ( 'NONE', #52, #245, #158 ) ;
#291 = CARTESIAN_POINT ( 'NONE',  ( 0.000000000000000000, 0.000000000000000000, 7.000000000000000000 ) ) ;
#292 = PRODUCT_DEFINITION_SHAPE ( 'NONE', 'NONE',  #25 ) ;
#293 = ADVANCED_FACE ( 'NONE', ( #296 ), #157, .T. ) ;
#294 = DIRECTION ( 'NONE',  ( 0.000000000000000000, 0.000000000000000000, 1.000000000000000000 ) ) ;
#295 = CIRCLE ( 'NONE', #165, 6.200000000000001066 ) ;
#296 = FACE_OUTER_BOUND ( 'NONE', #188, .T. ) ;
#297 = CARTESIAN_POINT ( 'NONE',  ( 6.000000000000000888, 7.347880794884120722E-16, 207.0000000000000284 ) ) ;
#298 = APPROVAL_ROLE ( '' ) ;
#299 = ORIENTED_EDGE ( 'NONE', *, *, #4, .F. ) ;
#300 = PERSON_AND_ORGANIZATION_ROLE ( 'classification_officer' ) ;
#301 = APPROVAL_STATUS ( 'not_yet_approved' ) ;
#302 = PERSON_AND_ORGANIZATION_ROLE ( 'creator' ) ;
#303 = ORIENTED_EDGE ( 'NONE', *, *, #83, .T. ) ;
#304 = ORIENTED_EDGE ( 'NONE', *, *, #190, .F. ) ;
#305 = COORDINATED_UNIVERSAL_TIME_OFFSET ( 1, 0, .AHEAD. ) ;
#306 = TOROIDAL_SURFACE ( 'NONE', #12, 6.200000000000001066, 0.2000000000000000111 ) ;
#307 = EDGE_LOOP ( 'NONE', ( #41, #279, #86, #16 ) ) ;
ENDSEC;
END-ISO-10303-21;
