ISO-10303-21;
HEADER;
FILE_DESCRIPTION (( 'STEP AP203' ),
    '1' );
FILE_NAME ('df57.STEP',
    '2022-06-20T09:20:42',
    ( '' ),
    ( '' ),
    'SwSTEP 2.0',
    'SolidWorks 2019',
    '' );
FILE_SCHEMA (( 'CONFIG_CONTROL_DESIGN' ));
ENDSEC;

DATA;
#1 = DIRECTION ( 'NONE',  ( -0.000000000000000000, -0.000000000000000000, -1.000000000000000000 ) ) ;
#2 = ADVANCED_BREP_SHAPE_REPRESENTATION ( 'df57', ( #25, #75 ), #116 ) ;
#3 = DIRECTION ( 'NONE',  ( -0.000000000000000000, -0.000000000000000000, -1.000000000000000000 ) ) ;
#4 = AXIS2_PLACEMENT_3D ( 'NONE', #280, #214, #195 ) ;
#5 = FACE_OUTER_BOUND ( 'NONE', #186, .T. ) ;
#6 = CARTESIAN_POINT ( 'NONE',  ( 10.20000000000000107, 0.000000000000000000, 8.199999999999999289 ) ) ;
#7 = LOCAL_TIME ( 11, 20, 42.00000000000000000, #279 ) ;
#8 = CC_DESIGN_DATE_AND_TIME_ASSIGNMENT ( #159, #250, ( #104 ) ) ;
#9 = ORIENTED_EDGE ( 'NONE', *, *, #300, .T. ) ;
#10 = CARTESIAN_POINT ( 'NONE',  ( 10.00000000000000000, 1.224646799147353256E-15, 8.199999999999999289 ) ) ;
#11 = CARTESIAN_POINT ( 'NONE',  ( 0.000000000000000000, 0.000000000000000000, 133.0000000000000000 ) ) ;
#12 = ADVANCED_FACE ( 'NONE', ( #228 ), #133, .T. ) ;
#13 = CC_DESIGN_PERSON_AND_ORGANIZATION_ASSIGNMENT ( #256, #234, ( #270 ) ) ;
#14 = ORIENTED_EDGE ( 'NONE', *, *, #102, .F. ) ;
#15 = COORDINATED_UNIVERSAL_TIME_OFFSET ( 1, 0, .AHEAD. ) ;
#16 = DIRECTION ( 'NONE',  ( -1.000000000000000000, 0.000000000000000000, 0.000000000000000000 ) ) ;
#17 = DIRECTION ( 'NONE',  ( -1.000000000000000000, 0.000000000000000000, 0.000000000000000000 ) ) ;
#18 = CARTESIAN_POINT ( 'NONE',  ( 0.000000000000000000, 0.000000000000000000, 8.199999999999999289 ) ) ;
#19 = CARTESIAN_POINT ( 'NONE',  ( 0.000000000000000000, 0.000000000000000000, 8.000000000000000000 ) ) ;
#20 = DIRECTION ( 'NONE',  ( 1.000000000000000000, 0.000000000000000000, 0.000000000000000000 ) ) ;
#21 = DIRECTION ( 'NONE',  ( 0.000000000000000000, 0.000000000000000000, 1.000000000000000000 ) ) ;
#22 = CARTESIAN_POINT ( 'NONE',  ( -10.20000000000000107, 1.249139735130300365E-15, 8.199999999999999289 ) ) ;
#23 = CARTESIAN_POINT ( 'NONE',  ( 0.000000000000000000, 0.000000000000000000, 133.0000000000000000 ) ) ;
#24 = ADVANCED_FACE ( 'NONE', ( #119 ), #218, .F. ) ;
#25 = MANIFOLD_SOLID_BREP ( 'Zaoblit1', #151 ) ;
#26 = CIRCLE ( 'NONE', #162, 13.00000000000000178 ) ;
#27 = AXIS2_PLACEMENT_3D ( 'NONE', #219, #216, #141 ) ;
#28 = ORIENTED_EDGE ( 'NONE', *, *, #31, .F. ) ;
#29 = PERSON_AND_ORGANIZATION ( #301, #149 ) ;
#30 = ORIENTED_EDGE ( 'NONE', *, *, #286, .T. ) ;
#31 = EDGE_CURVE ( 'NONE', #187, #64, #232, .T. ) ;
#32 = APPLICATION_CONTEXT ( 'configuration controlled 3d designs of mechanical parts and assemblies' ) ;
#33 = PERSON_AND_ORGANIZATION ( #301, #149 ) ;
#34 = ORIENTED_EDGE ( 'NONE', *, *, #248, .T. ) ;
#35 = CC_DESIGN_SECURITY_CLASSIFICATION ( #154, ( #270 ) ) ;
#36 = EDGE_LOOP ( 'NONE', ( #164, #225, #160, #28 ) ) ;
#37 = VERTEX_POINT ( 'NONE', #197 ) ;
#38 = PERSON_AND_ORGANIZATION_ROLE ( 'creator' ) ;
#39 = DIRECTION ( 'NONE',  ( -0.000000000000000000, -0.000000000000000000, -1.000000000000000000 ) ) ;
#40 = VECTOR ( 'NONE', #190, 1000.000000000000000 ) ;
#41 = DATE_AND_TIME ( #96, #7 ) ;
#42 = CYLINDRICAL_SURFACE ( 'NONE', #27, 13.00000000000000178 ) ;
#43 = AXIS2_PLACEMENT_3D ( 'NONE', #121, #39, #281 ) ;
#44 = COORDINATED_UNIVERSAL_TIME_OFFSET ( 1, 0, .AHEAD. ) ;
#45 = DIRECTION ( 'NONE',  ( 0.000000000000000000, 0.000000000000000000, 1.000000000000000000 ) ) ;
#46 = PERSON_AND_ORGANIZATION ( #301, #149 ) ;
#47 = LINE ( 'NONE', #66, #288 ) ;
#48 = DIRECTION ( 'NONE',  ( 1.000000000000000000, 0.000000000000000000, 0.000000000000000000 ) ) ;
#49 = CARTESIAN_POINT ( 'NONE',  ( -13.00000000000000178, 0.000000000000000000, 8.000000000000000000 ) ) ;
#50 = DIRECTION ( 'NONE',  ( 1.000000000000000000, 0.000000000000000000, 0.000000000000000000 ) ) ;
#51 = DIRECTION ( 'NONE',  ( 0.000000000000000000, 0.000000000000000000, 1.000000000000000000 ) ) ;
#52 = EDGE_CURVE ( 'NONE', #37, #269, #98, .T. ) ;
#53 = AXIS2_PLACEMENT_3D ( 'NONE', #18, #238, #211 ) ;
#54 = COORDINATED_UNIVERSAL_TIME_OFFSET ( 1, 0, .AHEAD. ) ;
#55 = APPLICATION_CONTEXT ( 'configuration controlled 3d designs of mechanical parts and assemblies' ) ;
#56 = DIRECTION ( 'NONE',  ( 1.000000000000000000, 0.000000000000000000, 0.000000000000000000 ) ) ;
#57 = CC_DESIGN_APPROVAL ( #277, ( #154 ) ) ;
#58 = EDGE_LOOP ( 'NONE', ( #14, #111, #204, #291 ) ) ;
#59 = ORIENTED_EDGE ( 'NONE', *, *, #274, .F. ) ;
#60 = PERSON_AND_ORGANIZATION_ROLE ( 'creator' ) ;
#61 = ORIENTED_EDGE ( 'NONE', *, *, #201, .T. ) ;
#62 = ORIENTED_EDGE ( 'NONE', *, *, #52, .T. ) ;
#63 = APPROVAL_PERSON_ORGANIZATION ( #215, #277, #239 ) ;
#64 = VERTEX_POINT ( 'NONE', #72 ) ;
#65 = APPROVAL ( #230, 'NEURÈENÝ' ) ;
#66 = CARTESIAN_POINT ( 'NONE',  ( -10.00000000000000000, 0.000000000000000000, 133.0000000000000000 ) ) ;
#67 = SHAPE_DEFINITION_REPRESENTATION ( #266, #2 ) ;
#68 = DIRECTION ( 'NONE',  ( -0.000000000000000000, -0.000000000000000000, -1.000000000000000000 ) ) ;
#69 = DATE_AND_TIME ( #242, #120 ) ;
#70 = DIRECTION ( 'NONE',  ( 1.000000000000000000, 0.000000000000000000, -0.000000000000000000 ) ) ;
#71 = ADVANCED_FACE ( 'NONE', ( #284 ), #170, .T. ) ;
#72 = CARTESIAN_POINT ( 'NONE',  ( 10.20000000000000107, 0.000000000000000000, 8.000000000000000000 ) ) ;
#73 =( NAMED_UNIT ( * ) SI_UNIT ( $, .STERADIAN. ) SOLID_ANGLE_UNIT ( ) );
#74 = CARTESIAN_POINT ( 'NONE',  ( -13.00000000000000178, 0.000000000000000000, 0.000000000000000000 ) ) ;
#75 = AXIS2_PLACEMENT_3D ( 'NONE', #207, #289, #56 ) ;
#76 = CC_DESIGN_PERSON_AND_ORGANIZATION_ASSIGNMENT ( #83, #60, ( #104 ) ) ;
#77 = CARTESIAN_POINT ( 'NONE',  ( 0.000000000000000000, 0.000000000000000000, 8.000000000000000000 ) ) ;
#78 = DIRECTION ( 'NONE',  ( 0.000000000000000000, 0.000000000000000000, 1.000000000000000000 ) ) ;
#79 = AXIS2_PLACEMENT_3D ( 'NONE', #93, #260, #20 ) ;
#80 = DIRECTION ( 'NONE',  ( 0.000000000000000000, 0.000000000000000000, 1.000000000000000000 ) ) ;
#81 = CC_DESIGN_DATE_AND_TIME_ASSIGNMENT ( #41, #231, ( #154 ) ) ;
#82 = ORIENTED_EDGE ( 'NONE', *, *, #206, .F. ) ;
#83 = PERSON_AND_ORGANIZATION ( #301, #149 ) ;
#84 = ORIENTED_EDGE ( 'NONE', *, *, #137, .F. ) ;
#85 = CALENDAR_DATE ( 2022, 20, 6 ) ;
#86 = EDGE_LOOP ( 'NONE', ( #84, #290, #249, #62 ) ) ;
#87 = PRODUCT_RELATED_PRODUCT_CATEGORY ( 'detail', '', ( #105 ) ) ;
#88 = ORIENTED_EDGE ( 'NONE', *, *, #222, .F. ) ;
#89 = VERTEX_POINT ( 'NONE', #97 ) ;
#90 = APPROVAL_PERSON_ORGANIZATION ( #227, #65, #268 ) ;
#91 = ADVANCED_FACE ( 'NONE', ( #243 ), #196, .T. ) ;
#92 = CARTESIAN_POINT ( 'NONE',  ( -13.00000000000000178, 0.000000000000000000, 8.000000000000000000 ) ) ;
#93 = CARTESIAN_POINT ( 'NONE',  ( 0.000000000000000000, 0.000000000000000000, 133.0000000000000000 ) ) ;
#94 = DIRECTION ( 'NONE',  ( 0.000000000000000000, 0.000000000000000000, 1.000000000000000000 ) ) ;
#95 = AXIS2_PLACEMENT_3D ( 'NONE', #199, #246, #101 ) ;
#96 = CALENDAR_DATE ( 2022, 20, 6 ) ;
#97 = CARTESIAN_POINT ( 'NONE',  ( 13.00000000000000178, 1.592040838891559293E-15, 8.000000000000000000 ) ) ;
#98 = CIRCLE ( 'NONE', #306, 10.00000000000000000 ) ;
#99 = CYLINDRICAL_SURFACE ( 'NONE', #194, 13.00000000000000178 ) ;
#100 = APPLICATION_PROTOCOL_DEFINITION ( 'international standard', 'config_control_design', 1994, #32 ) ;
#101 = DIRECTION ( 'NONE',  ( 1.000000000000000000, 0.000000000000000000, -0.000000000000000000 ) ) ;
#102 = EDGE_CURVE ( 'NONE', #183, #253, #221, .T. ) ;
#103 = CIRCLE ( 'NONE', #135, 10.00000000000000000 ) ;
#104 = PRODUCT_DEFINITION ( 'NEZNÁMÝ', '', #270, #272 ) ;
#105 = PRODUCT ( 'df57', 'df57', '', ( #153 ) ) ;
#106 = AXIS2_PLACEMENT_3D ( 'NONE', #22, #287, #283 ) ;
#107 = ORIENTED_EDGE ( 'NONE', *, *, #236, .T. ) ;
#108 = ORIENTED_EDGE ( 'NONE', *, *, #236, .F. ) ;
#109 = CIRCLE ( 'NONE', #244, 13.00000000000000178 ) ;
#110 = DIRECTION ( 'NONE',  ( -0.000000000000000000, -0.000000000000000000, -1.000000000000000000 ) ) ;
#111 = ORIENTED_EDGE ( 'NONE', *, *, #137, .T. ) ;
#112 = APPROVAL_STATUS ( 'not_yet_approved' ) ;
#113 = EDGE_CURVE ( 'NONE', #253, #37, #47, .T. ) ;
#114 = EDGE_LOOP ( 'NONE', ( #138, #34, #61, #82 ) ) ;
#115 = CARTESIAN_POINT ( 'NONE',  ( 0.000000000000000000, 0.000000000000000000, 8.199999999999999289 ) ) ;
#116 =( GEOMETRIC_REPRESENTATION_CONTEXT ( 3 ) GLOBAL_UNCERTAINTY_ASSIGNED_CONTEXT ( ( #184 ) ) GLOBAL_UNIT_ASSIGNED_CONTEXT ( ( #126, #174, #73 ) ) REPRESENTATION_CONTEXT ( 'NONE', 'WORKASPACE' ) );
#117 = DIRECTION ( 'NONE',  ( 1.000000000000000000, 0.000000000000000000, 0.000000000000000000 ) ) ;
#118 = DIRECTION ( 'NONE',  ( 1.000000000000000000, 0.000000000000000000, 0.000000000000000000 ) ) ;
#119 = FACE_OUTER_BOUND ( 'NONE', #273, .T. ) ;
#120 = LOCAL_TIME ( 11, 20, 42.00000000000000000, #15 ) ;
#121 = CARTESIAN_POINT ( 'NONE',  ( 0.000000000000000000, 0.000000000000000000, 133.0000000000000000 ) ) ;
#122 = DIRECTION ( 'NONE',  ( 0.000000000000000000, 0.000000000000000000, 1.000000000000000000 ) ) ;
#123 = DIRECTION ( 'NONE',  ( 1.000000000000000000, 0.000000000000000000, 0.000000000000000000 ) ) ;
#124 = CARTESIAN_POINT ( 'NONE',  ( 0.000000000000000000, 0.000000000000000000, 8.199999999999999289 ) ) ;
#125 = AXIS2_PLACEMENT_3D ( 'NONE', #6, #203, #157 ) ;
#126 =( LENGTH_UNIT ( ) NAMED_UNIT ( * ) SI_UNIT ( .MILLI., .METRE. ) );
#127 = AXIS2_PLACEMENT_3D ( 'NONE', #192, #94, #70 ) ;
#128 = FACE_BOUND ( 'NONE', #210, .T. ) ;
#129 = CARTESIAN_POINT ( 'NONE',  ( 13.00000000000000178, 1.592040838891559293E-15, 0.000000000000000000 ) ) ;
#130 = AXIS2_PLACEMENT_3D ( 'NONE', #139, #237, #118 ) ;
#131 = ORIENTED_EDGE ( 'NONE', *, *, #102, .T. ) ;
#132 = CALENDAR_DATE ( 2022, 20, 6 ) ;
#133 = CYLINDRICAL_SURFACE ( 'NONE', #240, 10.00000000000000000 ) ;
#134 = APPROVAL_STATUS ( 'not_yet_approved' ) ;
#135 = AXIS2_PLACEMENT_3D ( 'NONE', #23, #21, #150 ) ;
#136 = ORIENTED_EDGE ( 'NONE', *, *, #248, .F. ) ;
#137 = EDGE_CURVE ( 'NONE', #183, #269, #169, .T. ) ;
#138 = ORIENTED_EDGE ( 'NONE', *, *, #300, .F. ) ;
#139 = CARTESIAN_POINT ( 'NONE',  ( 0.000000000000000000, 0.000000000000000000, 0.000000000000000000 ) ) ;
#140 = CALENDAR_DATE ( 2022, 20, 6 ) ;
#141 = DIRECTION ( 'NONE',  ( -1.000000000000000000, 0.000000000000000000, 0.000000000000000000 ) ) ;
#142 = CARTESIAN_POINT ( 'NONE',  ( 0.000000000000000000, 0.000000000000000000, 8.199999999999999289 ) ) ;
#143 = AXIS2_PLACEMENT_3D ( 'NONE', #115, #282, #117 ) ;
#144 = FACE_OUTER_BOUND ( 'NONE', #36, .T. ) ;
#145 = FACE_OUTER_BOUND ( 'NONE', #209, .T. ) ;
#146 = ADVANCED_FACE ( 'NONE', ( #145 ), #42, .T. ) ;
#147 = LINE ( 'NONE', #223, #229 ) ;
#148 = CARTESIAN_POINT ( 'NONE',  ( -10.00000000000000000, 0.000000000000000000, 133.0000000000000000 ) ) ;
#149 = ORGANIZATION ( 'NEURÈENÝ', 'NEURÈENÝ', '' ) ;
#150 = DIRECTION ( 'NONE',  ( 1.000000000000000000, 0.000000000000000000, 0.000000000000000000 ) ) ;
#151 = CLOSED_SHELL ( 'NONE', ( #24, #71, #161, #146, #254, #212, #12, #91, #217 ) ) ;
#152 = DIRECTION ( 'NONE',  ( 1.000000000000000000, 0.000000000000000000, 0.000000000000000000 ) ) ;
#153 = MECHANICAL_CONTEXT ( 'NONE', #32, 'mechanical' ) ;
#154 = SECURITY_CLASSIFICATION ( '', '', #193 ) ;
#155 = APPROVAL ( #134, 'NEURÈENÝ' ) ;
#156 = EDGE_LOOP ( 'NONE', ( #202, #131 ) ) ;
#157 = DIRECTION ( 'NONE',  ( 0.000000000000000000, 0.000000000000000000, -1.000000000000000000 ) ) ;
#158 = ORIENTED_EDGE ( 'NONE', *, *, #31, .T. ) ;
#159 = DATE_AND_TIME ( #132, #285 ) ;
#160 = ORIENTED_EDGE ( 'NONE', *, *, #265, .T. ) ;
#161 = ADVANCED_FACE ( 'NONE', ( #307 ), #99, .T. ) ;
#162 = AXIS2_PLACEMENT_3D ( 'NONE', #77, #122, #177 ) ;
#163 = EDGE_LOOP ( 'NONE', ( #108, #208 ) ) ;
#164 = ORIENTED_EDGE ( 'NONE', *, *, #286, .F. ) ;
#165 = PLANE ( 'NONE',  #275 ) ;
#166 = APPROVAL_ROLE ( '' ) ;
#167 = CARTESIAN_POINT ( 'NONE',  ( 0.000000000000000000, 0.000000000000000000, 8.000000000000000000 ) ) ;
#168 = APPROVAL_DATE_TIME ( #69, #277 ) ;
#169 = LINE ( 'NONE', #257, #189 ) ;
#170 = CYLINDRICAL_SURFACE ( 'NONE', #43, 10.00000000000000000 ) ;
#171 = CC_DESIGN_PERSON_AND_ORGANIZATION_ASSIGNMENT ( #29, #185, ( #105 ) ) ;
#172 = CARTESIAN_POINT ( 'NONE',  ( 10.00000000000000000, 1.224646799147353256E-15, 133.0000000000000000 ) ) ;
#173 = CIRCLE ( 'NONE', #106, 0.2000000000000005107 ) ;
#174 =( NAMED_UNIT ( * ) PLANE_ANGLE_UNIT ( ) SI_UNIT ( $, .RADIAN. ) );
#175 = EDGE_CURVE ( 'NONE', #269, #37, #294, .T. ) ;
#176 = CIRCLE ( 'NONE', #292, 10.20000000000000107 ) ;
#177 = DIRECTION ( 'NONE',  ( 1.000000000000000000, 0.000000000000000000, 0.000000000000000000 ) ) ;
#178 = APPLICATION_PROTOCOL_DEFINITION ( 'international standard', 'config_control_design', 1994, #55 ) ;
#179 = VERTEX_POINT ( 'NONE', #74 ) ;
#180 = TOROIDAL_SURFACE ( 'NONE', #200, 10.20000000000000107, 0.2000000000000000111 ) ;
#181 = COORDINATED_UNIVERSAL_TIME_OFFSET ( 1, 0, .AHEAD. ) ;
#182 = DATE_AND_TIME ( #85, #247 ) ;
#183 = VERTEX_POINT ( 'NONE', #172 ) ;
#184 = UNCERTAINTY_MEASURE_WITH_UNIT (LENGTH_MEASURE( 1.000000000000000082E-05 ), #126, 'distance_accuracy_value', 'NONE');
#185 = PERSON_AND_ORGANIZATION_ROLE ( 'design_owner' ) ;
#186 = EDGE_LOOP ( 'NONE', ( #226, #9 ) ) ;
#187 = VERTEX_POINT ( 'NONE', #241 ) ;
#188 = APPROVAL_DATE_TIME ( #303, #155 ) ;
#189 = VECTOR ( 'NONE', #68, 1000.000000000000000 ) ;
#190 = DIRECTION ( 'NONE',  ( -0.000000000000000000, -0.000000000000000000, -1.000000000000000000 ) ) ;
#191 = CC_DESIGN_PERSON_AND_ORGANIZATION_ASSIGNMENT ( #46, #38, ( #270 ) ) ;
#192 = CARTESIAN_POINT ( 'NONE',  ( 0.000000000000000000, 0.000000000000000000, 133.0000000000000000 ) ) ;
#193 = SECURITY_CLASSIFICATION_LEVEL ( 'unclassified' ) ;
#194 = AXIS2_PLACEMENT_3D ( 'NONE', #167, #302, #16 ) ;
#195 = DIRECTION ( 'NONE',  ( 1.000000000000000000, 0.000000000000000000, 0.000000000000000000 ) ) ;
#196 = PLANE ( 'NONE',  #127 ) ;
#197 = CARTESIAN_POINT ( 'NONE',  ( -10.00000000000000000, 0.000000000000000000, 8.199999999999999289 ) ) ;
#198 = APPROVAL_PERSON_ORGANIZATION ( #33, #155, #166 ) ;
#199 = CARTESIAN_POINT ( 'NONE',  ( 0.000000000000000000, 0.000000000000000000, 8.000000000000000000 ) ) ;
#200 = AXIS2_PLACEMENT_3D ( 'NONE', #124, #80, #48 ) ;
#201 = EDGE_CURVE ( 'NONE', #233, #179, #262, .T. ) ;
#202 = ORIENTED_EDGE ( 'NONE', *, *, #245, .T. ) ;
#203 = DIRECTION ( 'NONE',  ( 0.000000000000000000, -1.000000000000000000, 0.000000000000000000 ) ) ;
#204 = ORIENTED_EDGE ( 'NONE', *, *, #175, .T. ) ;
#205 = CIRCLE ( 'NONE', #125, 0.2000000000000005107 ) ;
#206 = EDGE_CURVE ( 'NONE', #293, #179, #298, .T. ) ;
#207 = CARTESIAN_POINT ( 'NONE',  ( 0.000000000000000000, 0.000000000000000000, 0.000000000000000000 ) ) ;
#208 = ORIENTED_EDGE ( 'NONE', *, *, #201, .F. ) ;
#209 = EDGE_LOOP ( 'NONE', ( #136, #88, #295, #107 ) ) ;
#210 = EDGE_LOOP ( 'NONE', ( #296, #158 ) ) ;
#211 = DIRECTION ( 'NONE',  ( 1.000000000000000000, 0.000000000000000000, 0.000000000000000000 ) ) ;
#212 = ADVANCED_FACE ( 'NONE', ( #278 ), #165, .F. ) ;
#213 = PERSON_AND_ORGANIZATION_ROLE ( 'classification_officer' ) ;
#214 = DIRECTION ( 'NONE',  ( -0.000000000000000000, -0.000000000000000000, -1.000000000000000000 ) ) ;
#215 = PERSON_AND_ORGANIZATION ( #301, #149 ) ;
#216 = DIRECTION ( 'NONE',  ( -0.000000000000000000, -0.000000000000000000, -1.000000000000000000 ) ) ;
#217 = ADVANCED_FACE ( 'NONE', ( #144 ), #180, .F. ) ;
#218 = TOROIDAL_SURFACE ( 'NONE', #143, 10.20000000000000107, 0.2000000000000000111 ) ;
#219 = CARTESIAN_POINT ( 'NONE',  ( 0.000000000000000000, 0.000000000000000000, 8.000000000000000000 ) ) ;
#220 = PLANE ( 'NONE',  #95 ) ;
#221 = CIRCLE ( 'NONE', #79, 10.00000000000000000 ) ;
#222 = EDGE_CURVE ( 'NONE', #293, #89, #109, .T. ) ;
#223 = CARTESIAN_POINT ( 'NONE',  ( 13.00000000000000178, 1.592040838891559293E-15, 8.000000000000000000 ) ) ;
#224 = CC_DESIGN_APPROVAL ( #65, ( #104 ) ) ;
#225 = ORIENTED_EDGE ( 'NONE', *, *, #175, .F. ) ;
#226 = ORIENTED_EDGE ( 'NONE', *, *, #222, .T. ) ;
#227 = PERSON_AND_ORGANIZATION ( #301, #149 ) ;
#228 = FACE_OUTER_BOUND ( 'NONE', #86, .T. ) ;
#229 = VECTOR ( 'NONE', #1, 1000.000000000000000 ) ;
#230 = APPROVAL_STATUS ( 'not_yet_approved' ) ;
#231 = DATE_TIME_ROLE ( 'classification_date' ) ;
#232 = CIRCLE ( 'NONE', #4, 10.20000000000000107 ) ;
#233 = VERTEX_POINT ( 'NONE', #129 ) ;
#234 = PERSON_AND_ORGANIZATION_ROLE ( 'design_supplier' ) ;
#235 = CARTESIAN_POINT ( 'NONE',  ( 0.000000000000000000, 0.000000000000000000, 8.000000000000000000 ) ) ;
#236 = EDGE_CURVE ( 'NONE', #179, #233, #264, .T. ) ;
#237 = DIRECTION ( 'NONE',  ( 0.000000000000000000, 0.000000000000000000, 1.000000000000000000 ) ) ;
#238 = DIRECTION ( 'NONE',  ( 0.000000000000000000, 0.000000000000000000, 1.000000000000000000 ) ) ;
#239 = APPROVAL_ROLE ( '' ) ;
#240 = AXIS2_PLACEMENT_3D ( 'NONE', #11, #110, #17 ) ;
#241 = CARTESIAN_POINT ( 'NONE',  ( -10.20000000000000107, 1.249139735130300365E-15, 8.000000000000000000 ) ) ;
#242 = CALENDAR_DATE ( 2022, 20, 6 ) ;
#243 = FACE_OUTER_BOUND ( 'NONE', #156, .T. ) ;
#244 = AXIS2_PLACEMENT_3D ( 'NONE', #19, #78, #152 ) ;
#245 = EDGE_CURVE ( 'NONE', #253, #183, #103, .T. ) ;
#246 = DIRECTION ( 'NONE',  ( 0.000000000000000000, 0.000000000000000000, 1.000000000000000000 ) ) ;
#247 = LOCAL_TIME ( 11, 20, 42.00000000000000000, #54 ) ;
#248 = EDGE_CURVE ( 'NONE', #89, #233, #147, .T. ) ;
#249 = ORIENTED_EDGE ( 'NONE', *, *, #113, .T. ) ;
#250 = DATE_TIME_ROLE ( 'creation_date' ) ;
#251 = ORIENTED_EDGE ( 'NONE', *, *, #52, .F. ) ;
#252 = CC_DESIGN_APPROVAL ( #155, ( #270 ) ) ;
#253 = VERTEX_POINT ( 'NONE', #148 ) ;
#254 = ADVANCED_FACE ( 'NONE', ( #128, #5 ), #220, .T. ) ;
#255 = CARTESIAN_POINT ( 'NONE',  ( 0.000000000000000000, 0.000000000000000000, 0.000000000000000000 ) ) ;
#256 = PERSON_AND_ORGANIZATION ( #301, #149 ) ;
#257 = CARTESIAN_POINT ( 'NONE',  ( 10.00000000000000000, 1.224646799147353256E-15, 133.0000000000000000 ) ) ;
#258 = PERSON_AND_ORGANIZATION ( #301, #149 ) ;
#259 = DIRECTION ( 'NONE',  ( 1.000000000000000000, 0.000000000000000000, -0.000000000000000000 ) ) ;
#260 = DIRECTION ( 'NONE',  ( 0.000000000000000000, 0.000000000000000000, 1.000000000000000000 ) ) ;
#261 = DIRECTION ( 'NONE',  ( -0.000000000000000000, -0.000000000000000000, -1.000000000000000000 ) ) ;
#262 = CIRCLE ( 'NONE', #130, 13.00000000000000178 ) ;
#263 = CARTESIAN_POINT ( 'NONE',  ( 0.000000000000000000, 0.000000000000000000, 0.000000000000000000 ) ) ;
#264 = CIRCLE ( 'NONE', #297, 13.00000000000000178 ) ;
#265 = EDGE_CURVE ( 'NONE', #269, #64, #205, .T. ) ;
#266 = PRODUCT_DEFINITION_SHAPE ( 'NONE', 'NONE',  #104 ) ;
#267 = CC_DESIGN_PERSON_AND_ORGANIZATION_ASSIGNMENT ( #258, #213, ( #154 ) ) ;
#268 = APPROVAL_ROLE ( '' ) ;
#269 = VERTEX_POINT ( 'NONE', #10 ) ;
#270 = PRODUCT_DEFINITION_FORMATION_WITH_SPECIFIED_SOURCE ( 'LIBOVOLNÝ', '', #105, .NOT_KNOWN. ) ;
#271 = APPROVAL_DATE_TIME ( #182, #65 ) ;
#272 = DESIGN_CONTEXT ( 'detailed design', #55, 'design' ) ;
#273 = EDGE_LOOP ( 'NONE', ( #251, #30, #59, #276 ) ) ;
#274 = EDGE_CURVE ( 'NONE', #64, #187, #176, .T. ) ;
#275 = AXIS2_PLACEMENT_3D ( 'NONE', #255, #45, #259 ) ;
#276 = ORIENTED_EDGE ( 'NONE', *, *, #265, .F. ) ;
#277 = APPROVAL ( #112, 'NEURÈENÝ' ) ;
#278 = FACE_OUTER_BOUND ( 'NONE', #163, .T. ) ;
#279 = COORDINATED_UNIVERSAL_TIME_OFFSET ( 1, 0, .AHEAD. ) ;
#280 = CARTESIAN_POINT ( 'NONE',  ( 0.000000000000000000, 0.000000000000000000, 8.000000000000000000 ) ) ;
#281 = DIRECTION ( 'NONE',  ( -1.000000000000000000, 0.000000000000000000, 0.000000000000000000 ) ) ;
#282 = DIRECTION ( 'NONE',  ( 0.000000000000000000, 0.000000000000000000, 1.000000000000000000 ) ) ;
#283 = DIRECTION ( 'NONE',  ( -1.000000000000000000, 1.224646799147353207E-16, 0.000000000000000000 ) ) ;
#284 = FACE_OUTER_BOUND ( 'NONE', #58, .T. ) ;
#285 = LOCAL_TIME ( 11, 20, 42.00000000000000000, #181 ) ;
#286 = EDGE_CURVE ( 'NONE', #37, #187, #173, .T. ) ;
#287 = DIRECTION ( 'NONE',  ( 1.224646799147353207E-16, 1.000000000000000000, -0.000000000000000000 ) ) ;
#288 = VECTOR ( 'NONE', #261, 1000.000000000000000 ) ;
#289 = DIRECTION ( 'NONE',  ( 0.000000000000000000, 0.000000000000000000, 1.000000000000000000 ) ) ;
#290 = ORIENTED_EDGE ( 'NONE', *, *, #245, .F. ) ;
#291 = ORIENTED_EDGE ( 'NONE', *, *, #113, .F. ) ;
#292 = AXIS2_PLACEMENT_3D ( 'NONE', #235, #3, #50 ) ;
#293 = VERTEX_POINT ( 'NONE', #49 ) ;
#294 = CIRCLE ( 'NONE', #53, 10.00000000000000000 ) ;
#295 = ORIENTED_EDGE ( 'NONE', *, *, #206, .T. ) ;
#296 = ORIENTED_EDGE ( 'NONE', *, *, #274, .T. ) ;
#297 = AXIS2_PLACEMENT_3D ( 'NONE', #263, #51, #123 ) ;
#298 = LINE ( 'NONE', #92, #40 ) ;
#299 = DIRECTION ( 'NONE',  ( 1.000000000000000000, 0.000000000000000000, 0.000000000000000000 ) ) ;
#300 = EDGE_CURVE ( 'NONE', #89, #293, #26, .T. ) ;
#301 = PERSON ( 'NEURÈENÝ', 'NEURÈENÝ', 'NEURÈENÝ', ('NEURÈENÝ'), ('NEURÈENÝ'), ('NEURÈENÝ') ) ;
#302 = DIRECTION ( 'NONE',  ( -0.000000000000000000, -0.000000000000000000, -1.000000000000000000 ) ) ;
#303 = DATE_AND_TIME ( #140, #304 ) ;
#304 = LOCAL_TIME ( 11, 20, 42.00000000000000000, #44 ) ;
#305 = DIRECTION ( 'NONE',  ( 0.000000000000000000, 0.000000000000000000, 1.000000000000000000 ) ) ;
#306 = AXIS2_PLACEMENT_3D ( 'NONE', #142, #305, #299 ) ;
#307 = FACE_OUTER_BOUND ( 'NONE', #114, .T. ) ;
ENDSEC;
END-ISO-10303-21;
