ISO-10303-21;
HEADER;
FILE_DESCRIPTION (( 'STEP AP203' ),
    '1' );
FILE_NAME ('13a0.STEP',
    '2022-06-20T09:54:52',
    ( '' ),
    ( '' ),
    'SwSTEP 2.0',
    'SolidWorks 2019',
    '' );
FILE_SCHEMA (( 'CONFIG_CONTROL_DESIGN' ));
ENDSEC;

DATA;
#1 = LOCAL_TIME ( 11, 54, 52.00000000000000000, #124 ) ;
#2 = DATE_AND_TIME ( #82, #269 ) ;
#3 = APPLICATION_CONTEXT ( 'configuration controlled 3d designs of mechanical parts and assemblies' ) ;
#4 = DATE_AND_TIME ( #50, #1 ) ;
#5 = VERTEX_POINT ( 'NONE', #23 ) ;
#6 = AXIS2_PLACEMENT_3D ( 'NONE', #189, #37, #89 ) ;
#7 = ORIENTED_EDGE ( 'NONE', *, *, #107, .T. ) ;
#8 = ORIENTED_EDGE ( 'NONE', *, *, #288, .F. ) ;
#9 = DIRECTION ( 'NONE',  ( 0.000000000000000000, 0.000000000000000000, 1.000000000000000000 ) ) ;
#10 = ORIENTED_EDGE ( 'NONE', *, *, #156, .F. ) ;
#11 = DIRECTION ( 'NONE',  ( 0.000000000000000000, 0.000000000000000000, 1.000000000000000000 ) ) ;
#12 = AXIS2_PLACEMENT_3D ( 'NONE', #253, #9, #255 ) ;
#13 = EDGE_LOOP ( 'NONE', ( #7, #141 ) ) ;
#14 = PERSON_AND_ORGANIZATION ( #221, #91 ) ;
#15 = CC_DESIGN_PERSON_AND_ORGANIZATION_ASSIGNMENT ( #149, #264, ( #268 ) ) ;
#16 = CYLINDRICAL_SURFACE ( 'NONE', #6, 6.000000000000000888 ) ;
#17 = TOROIDAL_SURFACE ( 'NONE', #292, 3.450000000000000178, 0.2000000000000000111 ) ;
#18 = ORIENTED_EDGE ( 'NONE', *, *, #103, .T. ) ;
#19 = AXIS2_PLACEMENT_3D ( 'NONE', #61, #207, #180 ) ;
#20 = VECTOR ( 'NONE', #217, 1000.000000000000000 ) ;
#21 =( GEOMETRIC_REPRESENTATION_CONTEXT ( 3 ) GLOBAL_UNCERTAINTY_ASSIGNED_CONTEXT ( ( #110 ) ) GLOBAL_UNIT_ASSIGNED_CONTEXT ( ( #190, #74, #250 ) ) REPRESENTATION_CONTEXT ( 'NONE', 'WORKASPACE' ) );
#22 = CARTESIAN_POINT ( 'NONE',  ( 0.000000000000000000, 0.000000000000000000, 5.199999999999996625 ) ) ;
#23 = CARTESIAN_POINT ( 'NONE',  ( -3.250000000000000444, 0.000000000000000000, 5.199999999999996625 ) ) ;
#24 = PERSON_AND_ORGANIZATION_ROLE ( 'creator' ) ;
#25 = AXIS2_PLACEMENT_3D ( 'NONE', #139, #274, #34 ) ;
#26 = CIRCLE ( 'NONE', #109, 6.000000000000000888 ) ;
#27 = EDGE_CURVE ( 'NONE', #5, #35, #227, .T. ) ;
#28 = AXIS2_PLACEMENT_3D ( 'NONE', #127, #177, #60 ) ;
#29 = ADVANCED_FACE ( 'NONE', ( #105 ), #258, .T. ) ;
#30 = LINE ( 'NONE', #265, #297 ) ;
#31 = AXIS2_PLACEMENT_3D ( 'NONE', #98, #75, #77 ) ;
#32 = APPROVAL_PERSON_ORGANIZATION ( #196, #224, #226 ) ;
#33 = DIRECTION ( 'NONE',  ( 1.224646799147353207E-16, 1.000000000000000000, -0.000000000000000000 ) ) ;
#34 = DIRECTION ( 'NONE',  ( 1.000000000000000000, 0.000000000000000000, 0.000000000000000000 ) ) ;
#35 = VERTEX_POINT ( 'NONE', #128 ) ;
#36 = DIRECTION ( 'NONE',  ( 0.000000000000000000, 0.000000000000000000, 1.000000000000000000 ) ) ;
#37 = DIRECTION ( 'NONE',  ( -0.000000000000000000, -0.000000000000000000, -1.000000000000000000 ) ) ;
#38 = ADVANCED_BREP_SHAPE_REPRESENTATION ( '13a0', ( #302, #202 ), #21 ) ;
#39 = ORIENTED_EDGE ( 'NONE', *, *, #267, .F. ) ;
#40 = EDGE_CURVE ( 'NONE', #195, #173, #131, .T. ) ;
#41 = CARTESIAN_POINT ( 'NONE',  ( -6.000000000000000888, 0.000000000000000000, 5.000000000000000000 ) ) ;
#42 = AXIS2_PLACEMENT_3D ( 'NONE', #278, #36, #70 ) ;
#43 = EDGE_LOOP ( 'NONE', ( #8, #18, #212, #296 ) ) ;
#44 = APPROVAL_ROLE ( '' ) ;
#45 = ADVANCED_FACE ( 'NONE', ( #102 ), #17, .F. ) ;
#46 = DIRECTION ( 'NONE',  ( 1.000000000000000000, 0.000000000000000000, 0.000000000000000000 ) ) ;
#47 = COORDINATED_UNIVERSAL_TIME_OFFSET ( 1, 0, .AHEAD. ) ;
#48 = AXIS2_PLACEMENT_3D ( 'NONE', #71, #164, #236 ) ;
#49 = FACE_OUTER_BOUND ( 'NONE', #194, .T. ) ;
#50 = CALENDAR_DATE ( 2022, 20, 6 ) ;
#51 = ORIENTED_EDGE ( 'NONE', *, *, #40, .T. ) ;
#52 = DIRECTION ( 'NONE',  ( 0.000000000000000000, 0.000000000000000000, 1.000000000000000000 ) ) ;
#53 = PERSON_AND_ORGANIZATION ( #221, #91 ) ;
#54 = DIRECTION ( 'NONE',  ( -0.000000000000000000, -0.000000000000000000, -1.000000000000000000 ) ) ;
#55 = CARTESIAN_POINT ( 'NONE',  ( 6.000000000000000888, 7.347880794884120722E-16, 5.000000000000000000 ) ) ;
#56 = AXIS2_PLACEMENT_3D ( 'NONE', #108, #111, #248 ) ;
#57 = PRODUCT_DEFINITION_SHAPE ( 'NONE', 'NONE',  #263 ) ;
#58 = CIRCLE ( 'NONE', #205, 0.2000000000000000944 ) ;
#59 = LOCAL_TIME ( 11, 54, 52.00000000000000000, #161 ) ;
#60 = DIRECTION ( 'NONE',  ( 1.000000000000000000, 0.000000000000000000, 0.000000000000000000 ) ) ;
#61 = CARTESIAN_POINT ( 'NONE',  ( 0.000000000000000000, 0.000000000000000000, 130.0000000000000000 ) ) ;
#62 = CARTESIAN_POINT ( 'NONE',  ( -3.450000000000000178, 4.225031457058368824E-16, 4.999999999999998224 ) ) ;
#63 = VERTEX_POINT ( 'NONE', #145 ) ;
#64 = DIRECTION ( 'NONE',  ( -0.000000000000000000, -0.000000000000000000, -1.000000000000000000 ) ) ;
#65 = CIRCLE ( 'NONE', #213, 3.450000000000000178 ) ;
#66 = EDGE_LOOP ( 'NONE', ( #120, #72 ) ) ;
#67 = APPLICATION_PROTOCOL_DEFINITION ( 'international standard', 'config_control_design', 1994, #3 ) ;
#68 = ADVANCED_FACE ( 'NONE', ( #49 ), #170, .F. ) ;
#69 = DIRECTION ( 'NONE',  ( 0.000000000000000000, 0.000000000000000000, 1.000000000000000000 ) ) ;
#70 = DIRECTION ( 'NONE',  ( 1.000000000000000000, 0.000000000000000000, 0.000000000000000000 ) ) ;
#71 = CARTESIAN_POINT ( 'NONE',  ( 0.000000000000000000, 0.000000000000000000, 5.000000000000000000 ) ) ;
#72 = ORIENTED_EDGE ( 'NONE', *, *, #288, .T. ) ;
#73 = EDGE_CURVE ( 'NONE', #100, #137, #113, .T. ) ;
#74 =( NAMED_UNIT ( * ) PLANE_ANGLE_UNIT ( ) SI_UNIT ( $, .RADIAN. ) );
#75 = DIRECTION ( 'NONE',  ( 0.000000000000000000, 0.000000000000000000, 1.000000000000000000 ) ) ;
#76 = APPROVAL_DATE_TIME ( #4, #224 ) ;
#77 = DIRECTION ( 'NONE',  ( 1.000000000000000000, 0.000000000000000000, 0.000000000000000000 ) ) ;
#78 = VECTOR ( 'NONE', #252, 1000.000000000000000 ) ;
#79 = CC_DESIGN_PERSON_AND_ORGANIZATION_ASSIGNMENT ( #193, #24, ( #263 ) ) ;
#80 = CARTESIAN_POINT ( 'NONE',  ( 0.000000000000000000, 0.000000000000000000, 5.000000000000000000 ) ) ;
#81 = CALENDAR_DATE ( 2022, 20, 6 ) ;
#82 = CALENDAR_DATE ( 2022, 20, 6 ) ;
#83 = APPROVAL_PERSON_ORGANIZATION ( #14, #215, #44 ) ;
#84 = DIRECTION ( 'NONE',  ( -0.000000000000000000, -0.000000000000000000, -1.000000000000000000 ) ) ;
#85 = EDGE_CURVE ( 'NONE', #35, #100, #198, .T. ) ;
#86 = PLANE ( 'NONE',  #19 ) ;
#87 = VERTEX_POINT ( 'NONE', #55 ) ;
#88 = DIRECTION ( 'NONE',  ( -0.000000000000000000, -0.000000000000000000, -1.000000000000000000 ) ) ;
#89 = DIRECTION ( 'NONE',  ( -1.000000000000000000, 0.000000000000000000, 0.000000000000000000 ) ) ;
#90 = ORIENTED_EDGE ( 'NONE', *, *, #270, .F. ) ;
#91 = ORGANIZATION ( 'NEURÈENÝ', 'NEURÈENÝ', '' ) ;
#92 = FACE_OUTER_BOUND ( 'NONE', #13, .T. ) ;
#93 = DIRECTION ( 'NONE',  ( 1.000000000000000000, 0.000000000000000000, 0.000000000000000000 ) ) ;
#94 = CARTESIAN_POINT ( 'NONE',  ( 0.000000000000000000, 0.000000000000000000, 5.000000000000000000 ) ) ;
#95 = CC_DESIGN_PERSON_AND_ORGANIZATION_ASSIGNMENT ( #223, #285, ( #268 ) ) ;
#96 = APPROVAL_DATE_TIME ( #306, #215 ) ;
#97 = CC_DESIGN_APPROVAL ( #224, ( #234 ) ) ;
#98 = CARTESIAN_POINT ( 'NONE',  ( 0.000000000000000000, 0.000000000000000000, 0.000000000000000000 ) ) ;
#99 = APPROVAL_STATUS ( 'not_yet_approved' ) ;
#100 = VERTEX_POINT ( 'NONE', #133 ) ;
#101 = APPROVAL_STATUS ( 'not_yet_approved' ) ;
#102 = FACE_OUTER_BOUND ( 'NONE', #230, .T. ) ;
#103 = EDGE_CURVE ( 'NONE', #232, #35, #30, .T. ) ;
#104 = VECTOR ( 'NONE', #64, 1000.000000000000000 ) ;
#105 = FACE_OUTER_BOUND ( 'NONE', #116, .T. ) ;
#106 = APPLICATION_CONTEXT ( 'configuration controlled 3d designs of mechanical parts and assemblies' ) ;
#107 = EDGE_CURVE ( 'NONE', #163, #87, #157, .T. ) ;
#108 = CARTESIAN_POINT ( 'NONE',  ( 3.450000000000000178, 0.000000000000000000, 5.199999999999996625 ) ) ;
#109 = AXIS2_PLACEMENT_3D ( 'NONE', #301, #138, #283 ) ;
#110 = UNCERTAINTY_MEASURE_WITH_UNIT (LENGTH_MEASURE( 1.000000000000000082E-05 ), #190, 'distance_accuracy_value', 'NONE');
#111 = DIRECTION ( 'NONE',  ( 0.000000000000000000, -1.000000000000000000, 0.000000000000000000 ) ) ;
#112 = CC_DESIGN_DATE_AND_TIME_ASSIGNMENT ( #2, #222, ( #234 ) ) ;
#113 = CIRCLE ( 'NONE', #150, 3.450000000000000178 ) ;
#114 = DIRECTION ( 'NONE',  ( 1.000000000000000000, 0.000000000000000000, 0.000000000000000000 ) ) ;
#115 = ORIENTED_EDGE ( 'NONE', *, *, #294, .T. ) ;
#116 = EDGE_LOOP ( 'NONE', ( #277, #275, #184, #115 ) ) ;
#117 = PERSON_AND_ORGANIZATION_ROLE ( 'design_owner' ) ;
#118 = CC_DESIGN_APPROVAL ( #215, ( #263 ) ) ;
#119 = CARTESIAN_POINT ( 'NONE',  ( 0.000000000000000000, 0.000000000000000000, 5.000000000000000000 ) ) ;
#120 = ORIENTED_EDGE ( 'NONE', *, *, #156, .T. ) ;
#121 = CARTESIAN_POINT ( 'NONE',  ( 0.000000000000000000, 0.000000000000000000, 130.0000000000000000 ) ) ;
#122 = CARTESIAN_POINT ( 'NONE',  ( 6.000000000000000888, 7.347880794884120722E-16, 0.000000000000000000 ) ) ;
#123 = CARTESIAN_POINT ( 'NONE',  ( -6.000000000000000888, 0.000000000000000000, 5.000000000000000000 ) ) ;
#124 = COORDINATED_UNIVERSAL_TIME_OFFSET ( 1, 0, .AHEAD. ) ;
#125 = COORDINATED_UNIVERSAL_TIME_OFFSET ( 1, 0, .AHEAD. ) ;
#126 = ADVANCED_FACE ( 'NONE', ( #276 ), #86, .T. ) ;
#127 = CARTESIAN_POINT ( 'NONE',  ( 0.000000000000000000, 0.000000000000000000, 5.199999999999996625 ) ) ;
#128 = CARTESIAN_POINT ( 'NONE',  ( 3.250000000000000444, 3.980102097228898231E-16, 5.199999999999996625 ) ) ;
#129 = APPROVAL_PERSON_ORGANIZATION ( #242, #282, #130 ) ;
#130 = APPROVAL_ROLE ( '' ) ;
#131 = CIRCLE ( 'NONE', #31, 6.000000000000000888 ) ;
#132 = EDGE_CURVE ( 'NONE', #87, #163, #233, .T. ) ;
#133 = CARTESIAN_POINT ( 'NONE',  ( 3.450000000000000178, 0.000000000000000000, 4.999999999999998224 ) ) ;
#134 = ORIENTED_EDGE ( 'NONE', *, *, #228, .T. ) ;
#135 = PLANE ( 'NONE',  #12 ) ;
#136 = CYLINDRICAL_SURFACE ( 'NONE', #245, 3.250000000000000444 ) ;
#137 = VERTEX_POINT ( 'NONE', #62 ) ;
#138 = DIRECTION ( 'NONE',  ( 0.000000000000000000, 0.000000000000000000, 1.000000000000000000 ) ) ;
#139 = CARTESIAN_POINT ( 'NONE',  ( 0.000000000000000000, 0.000000000000000000, 130.0000000000000000 ) ) ;
#140 = DIRECTION ( 'NONE',  ( 1.000000000000000000, 0.000000000000000000, 0.000000000000000000 ) ) ;
#141 = ORIENTED_EDGE ( 'NONE', *, *, #132, .T. ) ;
#142 = CALENDAR_DATE ( 2022, 20, 6 ) ;
#143 = ADVANCED_FACE ( 'NONE', ( #162 ), #135, .F. ) ;
#144 = CARTESIAN_POINT ( 'NONE',  ( 0.000000000000000000, 0.000000000000000000, 5.199999999999996625 ) ) ;
#145 = CARTESIAN_POINT ( 'NONE',  ( -3.250000000000000444, 0.000000000000000000, 130.0000000000000000 ) ) ;
#146 = ADVANCED_FACE ( 'NONE', ( #291 ), #16, .T. ) ;
#147 = DIRECTION ( 'NONE',  ( 0.000000000000000000, 0.000000000000000000, 1.000000000000000000 ) ) ;
#148 = SHAPE_DEFINITION_REPRESENTATION ( #57, #38 ) ;
#149 = PERSON_AND_ORGANIZATION ( #221, #91 ) ;
#150 = AXIS2_PLACEMENT_3D ( 'NONE', #197, #84, #178 ) ;
#151 = CARTESIAN_POINT ( 'NONE',  ( 0.000000000000000000, 0.000000000000000000, 5.000000000000000000 ) ) ;
#152 = LOCAL_TIME ( 11, 54, 52.00000000000000000, #125 ) ;
#153 = AXIS2_PLACEMENT_3D ( 'NONE', #119, #69, #271 ) ;
#154 = CARTESIAN_POINT ( 'NONE',  ( 6.000000000000000888, 7.347880794884120722E-16, 5.000000000000000000 ) ) ;
#155 = EDGE_LOOP ( 'NONE', ( #172, #183 ) ) ;
#156 = EDGE_CURVE ( 'NONE', #63, #232, #179, .T. ) ;
#157 = CIRCLE ( 'NONE', #307, 6.000000000000000888 ) ;
#158 = AXIS2_PLACEMENT_3D ( 'NONE', #121, #88, #218 ) ;
#159 = LINE ( 'NONE', #240, #78 ) ;
#160 = ORIENTED_EDGE ( 'NONE', *, *, #40, .F. ) ;
#161 = COORDINATED_UNIVERSAL_TIME_OFFSET ( 1, 0, .AHEAD. ) ;
#162 = FACE_OUTER_BOUND ( 'NONE', #293, .T. ) ;
#163 = VERTEX_POINT ( 'NONE', #41 ) ;
#164 = DIRECTION ( 'NONE',  ( 0.000000000000000000, 0.000000000000000000, 1.000000000000000000 ) ) ;
#165 = ORIENTED_EDGE ( 'NONE', *, *, #73, .F. ) ;
#166 = ADVANCED_FACE ( 'NONE', ( #216, #92 ), #279, .T. ) ;
#167 = FACE_OUTER_BOUND ( 'NONE', #43, .T. ) ;
#168 = ORIENTED_EDGE ( 'NONE', *, *, #228, .F. ) ;
#169 = CARTESIAN_POINT ( 'NONE',  ( 0.000000000000000000, 0.000000000000000000, 130.0000000000000000 ) ) ;
#170 = TOROIDAL_SURFACE ( 'NONE', #28, 3.450000000000000178, 0.2000000000000000111 ) ;
#171 = EDGE_CURVE ( 'NONE', #87, #195, #204, .T. ) ;
#172 = ORIENTED_EDGE ( 'NONE', *, *, #73, .T. ) ;
#173 = VERTEX_POINT ( 'NONE', #191 ) ;
#174 = PRODUCT ( '13a0', '13a0', '', ( #187 ) ) ;
#175 = DATE_AND_TIME ( #220, #152 ) ;
#176 = DESIGN_CONTEXT ( 'detailed design', #3, 'design' ) ;
#177 = DIRECTION ( 'NONE',  ( 0.000000000000000000, 0.000000000000000000, 1.000000000000000000 ) ) ;
#178 = DIRECTION ( 'NONE',  ( 1.000000000000000000, 0.000000000000000000, 0.000000000000000000 ) ) ;
#179 = CIRCLE ( 'NONE', #25, 3.250000000000000444 ) ;
#180 = DIRECTION ( 'NONE',  ( 1.000000000000000000, 0.000000000000000000, -0.000000000000000000 ) ) ;
#181 = CC_DESIGN_DATE_AND_TIME_ASSIGNMENT ( #244, #201, ( #263 ) ) ;
#182 = CLOSED_SHELL ( 'NONE', ( #68, #251, #146, #29, #166, #143, #304, #126, #45 ) ) ;
#183 = ORIENTED_EDGE ( 'NONE', *, *, #188, .T. ) ;
#184 = ORIENTED_EDGE ( 'NONE', *, *, #267, .T. ) ;
#185 = APPLICATION_PROTOCOL_DEFINITION ( 'international standard', 'config_control_design', 1994, #106 ) ;
#186 = ORIENTED_EDGE ( 'NONE', *, *, #188, .F. ) ;
#187 = MECHANICAL_CONTEXT ( 'NONE', #106, 'mechanical' ) ;
#188 = EDGE_CURVE ( 'NONE', #137, #100, #65, .T. ) ;
#189 = CARTESIAN_POINT ( 'NONE',  ( 0.000000000000000000, 0.000000000000000000, 5.000000000000000000 ) ) ;
#190 =( LENGTH_UNIT ( ) NAMED_UNIT ( * ) SI_UNIT ( .MILLI., .METRE. ) );
#191 = CARTESIAN_POINT ( 'NONE',  ( -6.000000000000000888, 0.000000000000000000, 0.000000000000000000 ) ) ;
#192 = ORIENTED_EDGE ( 'NONE', *, *, #294, .F. ) ;
#193 = PERSON_AND_ORGANIZATION ( #221, #91 ) ;
#194 = EDGE_LOOP ( 'NONE', ( #237, #134, #165, #241 ) ) ;
#195 = VERTEX_POINT ( 'NONE', #122 ) ;
#196 = PERSON_AND_ORGANIZATION ( #221, #91 ) ;
#197 = CARTESIAN_POINT ( 'NONE',  ( 0.000000000000000000, 0.000000000000000000, 5.000000000000000000 ) ) ;
#198 = CIRCLE ( 'NONE', #56, 0.1999999999999996503 ) ;
#199 = AXIS2_PLACEMENT_3D ( 'NONE', #211, #209, #140 ) ;
#200 = APPROVAL_DATE_TIME ( #175, #282 ) ;
#201 = DATE_TIME_ROLE ( 'creation_date' ) ;
#202 = AXIS2_PLACEMENT_3D ( 'NONE', #231, #11, #93 ) ;
#203 = CC_DESIGN_PERSON_AND_ORGANIZATION_ASSIGNMENT ( #235, #117, ( #174 ) ) ;
#204 = LINE ( 'NONE', #154, #20 ) ;
#205 = AXIS2_PLACEMENT_3D ( 'NONE', #238, #33, #257 ) ;
#206 = CIRCLE ( 'NONE', #42, 3.250000000000000444 ) ;
#207 = DIRECTION ( 'NONE',  ( 0.000000000000000000, 0.000000000000000000, 1.000000000000000000 ) ) ;
#208 = ORIENTED_EDGE ( 'NONE', *, *, #27, .T. ) ;
#209 = DIRECTION ( 'NONE',  ( 0.000000000000000000, 0.000000000000000000, 1.000000000000000000 ) ) ;
#210 = ORIENTED_EDGE ( 'NONE', *, *, #103, .F. ) ;
#211 = CARTESIAN_POINT ( 'NONE',  ( 0.000000000000000000, 0.000000000000000000, 5.199999999999996625 ) ) ;
#212 = ORIENTED_EDGE ( 'NONE', *, *, #270, .T. ) ;
#213 = AXIS2_PLACEMENT_3D ( 'NONE', #94, #281, #305 ) ;
#214 = CARTESIAN_POINT ( 'NONE',  ( 3.250000000000000444, 3.980102097228898231E-16, 130.0000000000000000 ) ) ;
#215 = APPROVAL ( #303, 'NEURÈENÝ' ) ;
#216 = FACE_BOUND ( 'NONE', #155, .T. ) ;
#217 = DIRECTION ( 'NONE',  ( -0.000000000000000000, -0.000000000000000000, -1.000000000000000000 ) ) ;
#218 = DIRECTION ( 'NONE',  ( -1.000000000000000000, 0.000000000000000000, 0.000000000000000000 ) ) ;
#219 = DIRECTION ( 'NONE',  ( -1.000000000000000000, 0.000000000000000000, 0.000000000000000000 ) ) ;
#220 = CALENDAR_DATE ( 2022, 20, 6 ) ;
#221 = PERSON ( 'NEURÈENÝ', 'NEURÈENÝ', 'NEURÈENÝ', ('NEURÈENÝ'), ('NEURÈENÝ'), ('NEURÈENÝ') ) ;
#222 = DATE_TIME_ROLE ( 'classification_date' ) ;
#223 = PERSON_AND_ORGANIZATION ( #221, #91 ) ;
#224 = APPROVAL ( #99, 'NEURÈENÝ' ) ;
#225 = LOCAL_TIME ( 11, 54, 52.00000000000000000, #287 ) ;
#226 = APPROVAL_ROLE ( '' ) ;
#227 = CIRCLE ( 'NONE', #249, 3.250000000000000444 ) ;
#228 = EDGE_CURVE ( 'NONE', #5, #137, #58, .T. ) ;
#229 = ORIENTED_EDGE ( 'NONE', *, *, #132, .F. ) ;
#230 = EDGE_LOOP ( 'NONE', ( #168, #90, #272, #186 ) ) ;
#231 = CARTESIAN_POINT ( 'NONE',  ( 0.000000000000000000, 0.000000000000000000, 0.000000000000000000 ) ) ;
#232 = VERTEX_POINT ( 'NONE', #214 ) ;
#233 = CIRCLE ( 'NONE', #153, 6.000000000000000888 ) ;
#234 = SECURITY_CLASSIFICATION ( '', '', #266 ) ;
#235 = PERSON_AND_ORGANIZATION ( #221, #91 ) ;
#236 = DIRECTION ( 'NONE',  ( 1.000000000000000000, 0.000000000000000000, -0.000000000000000000 ) ) ;
#237 = ORIENTED_EDGE ( 'NONE', *, *, #27, .F. ) ;
#238 = CARTESIAN_POINT ( 'NONE',  ( -3.450000000000000178, 4.225031457058368824E-16, 5.199999999999996625 ) ) ;
#239 = EDGE_CURVE ( 'NONE', #63, #5, #159, .T. ) ;
#240 = CARTESIAN_POINT ( 'NONE',  ( -3.250000000000000444, 0.000000000000000000, 130.0000000000000000 ) ) ;
#241 = ORIENTED_EDGE ( 'NONE', *, *, #85, .F. ) ;
#242 = PERSON_AND_ORGANIZATION ( #221, #91 ) ;
#243 = DIRECTION ( 'NONE',  ( -0.000000000000000000, -0.000000000000000000, -1.000000000000000000 ) ) ;
#244 = DATE_AND_TIME ( #81, #225 ) ;
#245 = AXIS2_PLACEMENT_3D ( 'NONE', #169, #298, #273 ) ;
#246 = DIRECTION ( 'NONE',  ( 0.000000000000000000, 0.000000000000000000, 1.000000000000000000 ) ) ;
#247 = CC_DESIGN_PERSON_AND_ORGANIZATION_ASSIGNMENT ( #53, #262, ( #234 ) ) ;
#248 = DIRECTION ( 'NONE',  ( 0.000000000000000000, 0.000000000000000000, -1.000000000000000000 ) ) ;
#249 = AXIS2_PLACEMENT_3D ( 'NONE', #144, #52, #286 ) ;
#250 =( NAMED_UNIT ( * ) SI_UNIT ( $, .STERADIAN. ) SOLID_ANGLE_UNIT ( ) );
#251 = ADVANCED_FACE ( 'NONE', ( #167 ), #136, .T. ) ;
#252 = DIRECTION ( 'NONE',  ( -0.000000000000000000, -0.000000000000000000, -1.000000000000000000 ) ) ;
#253 = CARTESIAN_POINT ( 'NONE',  ( 0.000000000000000000, 0.000000000000000000, 0.000000000000000000 ) ) ;
#254 = ORIENTED_EDGE ( 'NONE', *, *, #171, .T. ) ;
#255 = DIRECTION ( 'NONE',  ( 1.000000000000000000, 0.000000000000000000, -0.000000000000000000 ) ) ;
#256 = CIRCLE ( 'NONE', #199, 3.250000000000000444 ) ;
#257 = DIRECTION ( 'NONE',  ( -1.000000000000000000, 1.224646799147350742E-16, 0.000000000000000000 ) ) ;
#258 = CYLINDRICAL_SURFACE ( 'NONE', #260, 6.000000000000000888 ) ;
#259 = LINE ( 'NONE', #123, #104 ) ;
#260 = AXIS2_PLACEMENT_3D ( 'NONE', #80, #243, #219 ) ;
#261 = EDGE_LOOP ( 'NONE', ( #210, #10, #284, #208 ) ) ;
#262 = PERSON_AND_ORGANIZATION_ROLE ( 'classification_officer' ) ;
#263 = PRODUCT_DEFINITION ( 'NEZNÁMÝ', '', #268, #176 ) ;
#264 = PERSON_AND_ORGANIZATION_ROLE ( 'design_supplier' ) ;
#265 = CARTESIAN_POINT ( 'NONE',  ( 3.250000000000000444, 3.980102097228898231E-16, 130.0000000000000000 ) ) ;
#266 = SECURITY_CLASSIFICATION_LEVEL ( 'unclassified' ) ;
#267 = EDGE_CURVE ( 'NONE', #163, #173, #259, .T. ) ;
#268 = PRODUCT_DEFINITION_FORMATION_WITH_SPECIFIED_SOURCE ( 'LIBOVOLNÝ', '', #174, .NOT_KNOWN. ) ;
#269 = LOCAL_TIME ( 11, 54, 52.00000000000000000, #47 ) ;
#270 = EDGE_CURVE ( 'NONE', #35, #5, #256, .T. ) ;
#271 = DIRECTION ( 'NONE',  ( 1.000000000000000000, 0.000000000000000000, 0.000000000000000000 ) ) ;
#272 = ORIENTED_EDGE ( 'NONE', *, *, #85, .T. ) ;
#273 = DIRECTION ( 'NONE',  ( -1.000000000000000000, 0.000000000000000000, 0.000000000000000000 ) ) ;
#274 = DIRECTION ( 'NONE',  ( 0.000000000000000000, 0.000000000000000000, 1.000000000000000000 ) ) ;
#275 = ORIENTED_EDGE ( 'NONE', *, *, #107, .F. ) ;
#276 = FACE_OUTER_BOUND ( 'NONE', #66, .T. ) ;
#277 = ORIENTED_EDGE ( 'NONE', *, *, #171, .F. ) ;
#278 = CARTESIAN_POINT ( 'NONE',  ( 0.000000000000000000, 0.000000000000000000, 130.0000000000000000 ) ) ;
#279 = PLANE ( 'NONE',  #48 ) ;
#280 = FACE_OUTER_BOUND ( 'NONE', #261, .T. ) ;
#281 = DIRECTION ( 'NONE',  ( -0.000000000000000000, -0.000000000000000000, -1.000000000000000000 ) ) ;
#282 = APPROVAL ( #101, 'NEURÈENÝ' ) ;
#283 = DIRECTION ( 'NONE',  ( 1.000000000000000000, 0.000000000000000000, 0.000000000000000000 ) ) ;
#284 = ORIENTED_EDGE ( 'NONE', *, *, #239, .T. ) ;
#285 = PERSON_AND_ORGANIZATION_ROLE ( 'creator' ) ;
#286 = DIRECTION ( 'NONE',  ( 1.000000000000000000, 0.000000000000000000, 0.000000000000000000 ) ) ;
#287 = COORDINATED_UNIVERSAL_TIME_OFFSET ( 1, 0, .AHEAD. ) ;
#288 = EDGE_CURVE ( 'NONE', #232, #63, #206, .T. ) ;
#289 = PRODUCT_RELATED_PRODUCT_CATEGORY ( 'detail', '', ( #174 ) ) ;
#290 = CC_DESIGN_APPROVAL ( #282, ( #268 ) ) ;
#291 = FACE_OUTER_BOUND ( 'NONE', #300, .T. ) ;
#292 = AXIS2_PLACEMENT_3D ( 'NONE', #22, #147, #46 ) ;
#293 = EDGE_LOOP ( 'NONE', ( #192, #160 ) ) ;
#294 = EDGE_CURVE ( 'NONE', #173, #195, #26, .T. ) ;
#295 = CYLINDRICAL_SURFACE ( 'NONE', #158, 3.250000000000000444 ) ;
#296 = ORIENTED_EDGE ( 'NONE', *, *, #239, .F. ) ;
#297 = VECTOR ( 'NONE', #54, 1000.000000000000000 ) ;
#298 = DIRECTION ( 'NONE',  ( -0.000000000000000000, -0.000000000000000000, -1.000000000000000000 ) ) ;
#299 = CC_DESIGN_SECURITY_CLASSIFICATION ( #234, ( #268 ) ) ;
#300 = EDGE_LOOP ( 'NONE', ( #229, #254, #51, #39 ) ) ;
#301 = CARTESIAN_POINT ( 'NONE',  ( 0.000000000000000000, 0.000000000000000000, 0.000000000000000000 ) ) ;
#302 = MANIFOLD_SOLID_BREP ( 'Zaoblit1', #182 ) ;
#303 = APPROVAL_STATUS ( 'not_yet_approved' ) ;
#304 = ADVANCED_FACE ( 'NONE', ( #280 ), #295, .T. ) ;
#305 = DIRECTION ( 'NONE',  ( 1.000000000000000000, 0.000000000000000000, 0.000000000000000000 ) ) ;
#306 = DATE_AND_TIME ( #142, #59 ) ;
#307 = AXIS2_PLACEMENT_3D ( 'NONE', #151, #246, #114 ) ;
ENDSEC;
END-ISO-10303-21;
