ISO-10303-21;
HEADER;
FILE_DESCRIPTION (( 'STEP AP203' ),
    '1' );
FILE_NAME ('276e.STEP',
    '2022-06-20T09:15:40',
    ( '' ),
    ( '' ),
    'SwSTEP 2.0',
    'SolidWorks 2019',
    '' );
FILE_SCHEMA (( 'CONFIG_CONTROL_DESIGN' ));
ENDSEC;

DATA;
#1 = DIRECTION ( 'NONE',  ( -1.000000000000000000, 0.000000000000000000, 0.000000000000000000 ) ) ;
#2 = EDGE_CURVE ( 'NONE', #24, #236, #127, .T. ) ;
#3 = CARTESIAN_POINT ( 'NONE',  ( -20.00000000000000000, 0.000000000000000000, 10.00000000000000000 ) ) ;
#4 = PERSON_AND_ORGANIZATION_ROLE ( 'design_supplier' ) ;
#5 = AXIS2_PLACEMENT_3D ( 'NONE', #164, #254, #140 ) ;
#6 = CARTESIAN_POINT ( 'NONE',  ( 0.000000000000000000, 0.000000000000000000, 1210.000000000000000 ) ) ;
#7 = PERSON_AND_ORGANIZATION ( #117, #120 ) ;
#8 = EDGE_LOOP ( 'NONE', ( #210, #149, #96, #53 ) ) ;
#9 = APPROVAL_ROLE ( '' ) ;
#10 = ORIENTED_EDGE ( 'NONE', *, *, #248, .T. ) ;
#11 = DATE_TIME_ROLE ( 'creation_date' ) ;
#12 = DIRECTION ( 'NONE',  ( 1.000000000000000000, 0.000000000000000000, 0.000000000000000000 ) ) ;
#13 = VECTOR ( 'NONE', #194, 1000.000000000000000 ) ;
#14 = FACE_OUTER_BOUND ( 'NONE', #114, .T. ) ;
#15 = APPLICATION_CONTEXT ( 'configuration controlled 3d designs of mechanical parts and assemblies' ) ;
#16 = CARTESIAN_POINT ( 'NONE',  ( 0.000000000000000000, 0.000000000000000000, 10.19999999999998685 ) ) ;
#17 = LINE ( 'NONE', #40, #225 ) ;
#18 = AXIS2_PLACEMENT_3D ( 'NONE', #43, #182, #42 ) ;
#19 = ORIENTED_EDGE ( 'NONE', *, *, #264, .F. ) ;
#20 = LOCAL_TIME ( 11, 15, 40.00000000000000000, #122 ) ;
#21 = ORIENTED_EDGE ( 'NONE', *, *, #190, .F. ) ;
#22 = APPROVAL ( #221, 'NEURÈENÝ' ) ;
#23 = EDGE_LOOP ( 'NONE', ( #166, #116, #92, #243 ) ) ;
#24 = VERTEX_POINT ( 'NONE', #156 ) ;
#25 = TOROIDAL_SURFACE ( 'NONE', #150, 16.19999999999999929, 0.2000000000000000111 ) ;
#26 = AXIS2_PLACEMENT_3D ( 'NONE', #171, #55, #79 ) ;
#27 = FACE_OUTER_BOUND ( 'NONE', #260, .T. ) ;
#28 = PRODUCT_DEFINITION_SHAPE ( 'NONE', 'NONE',  #113 ) ;
#29 = CARTESIAN_POINT ( 'NONE',  ( 0.000000000000000000, 0.000000000000000000, 1210.000000000000000 ) ) ;
#30 = PERSON_AND_ORGANIZATION ( #117, #120 ) ;
#31 = CARTESIAN_POINT ( 'NONE',  ( 0.000000000000000000, 0.000000000000000000, 1210.000000000000000 ) ) ;
#32 = PERSON_AND_ORGANIZATION ( #117, #120 ) ;
#33 = AXIS2_PLACEMENT_3D ( 'NONE', #265, #197, #212 ) ;
#34 = CIRCLE ( 'NONE', #81, 0.2000000000000005107 ) ;
#35 = PLANE ( 'NONE',  #26 ) ;
#36 = DIRECTION ( 'NONE',  ( -0.000000000000000000, -0.000000000000000000, -1.000000000000000000 ) ) ;
#37 = DIRECTION ( 'NONE',  ( -0.000000000000000000, -0.000000000000000000, -1.000000000000000000 ) ) ;
#38 = CARTESIAN_POINT ( 'NONE',  ( 0.000000000000000000, 0.000000000000000000, 0.000000000000000000 ) ) ;
#39 = AXIS2_PLACEMENT_3D ( 'NONE', #224, #249, #245 ) ;
#40 = CARTESIAN_POINT ( 'NONE',  ( 20.00000000000000000, 2.449293598294706513E-15, 10.00000000000000000 ) ) ;
#41 = SHAPE_DEFINITION_REPRESENTATION ( #28, #290 ) ;
#42 = DIRECTION ( 'NONE',  ( 1.000000000000000000, 0.000000000000000000, 0.000000000000000000 ) ) ;
#43 = CARTESIAN_POINT ( 'NONE',  ( 0.000000000000000000, 0.000000000000000000, 10.00000000000000000 ) ) ;
#44 = AXIS2_PLACEMENT_3D ( 'NONE', #240, #76, #123 ) ;
#45 = CIRCLE ( 'NONE', #18, 16.19999999999999929 ) ;
#46 = ADVANCED_FACE ( 'NONE', ( #283 ), #103, .T. ) ;
#47 = MECHANICAL_CONTEXT ( 'NONE', #235, 'mechanical' ) ;
#48 = ORIENTED_EDGE ( 'NONE', *, *, #165, .T. ) ;
#49 = AXIS2_PLACEMENT_3D ( 'NONE', #201, #277, #273 ) ;
#50 = ADVANCED_FACE ( 'NONE', ( #63 ), #268, .T. ) ;
#51 = ORIENTED_EDGE ( 'NONE', *, *, #98, .T. ) ;
#52 = AXIS2_PLACEMENT_3D ( 'NONE', #289, #61, #155 ) ;
#53 = ORIENTED_EDGE ( 'NONE', *, *, #264, .T. ) ;
#54 = COORDINATED_UNIVERSAL_TIME_OFFSET ( 1, 0, .AHEAD. ) ;
#55 = DIRECTION ( 'NONE',  ( 0.000000000000000000, 0.000000000000000000, 1.000000000000000000 ) ) ;
#56 = DATE_AND_TIME ( #77, #87 ) ;
#57 = DIRECTION ( 'NONE',  ( -0.000000000000000000, -0.000000000000000000, -1.000000000000000000 ) ) ;
#58 = DATE_AND_TIME ( #218, #269 ) ;
#59 = AXIS2_PLACEMENT_3D ( 'NONE', #295, #229, #108 ) ;
#60 = PRODUCT_RELATED_PRODUCT_CATEGORY ( 'detail', '', ( #141 ) ) ;
#61 = DIRECTION ( 'NONE',  ( 0.000000000000000000, 0.000000000000000000, 1.000000000000000000 ) ) ;
#62 = COORDINATED_UNIVERSAL_TIME_OFFSET ( 1, 0, .AHEAD. ) ;
#63 = FACE_OUTER_BOUND ( 'NONE', #97, .T. ) ;
#64 = ADVANCED_FACE ( 'NONE', ( #27 ), #25, .F. ) ;
#65 = AXIS2_PLACEMENT_3D ( 'NONE', #16, #296, #12 ) ;
#66 = PLANE ( 'NONE',  #49 ) ;
#67 =( NAMED_UNIT ( * ) PLANE_ANGLE_UNIT ( ) SI_UNIT ( $, .RADIAN. ) );
#68 = EDGE_CURVE ( 'NONE', #303, #187, #297, .T. ) ;
#69 = TOROIDAL_SURFACE ( 'NONE', #109, 16.19999999999999929, 0.2000000000000000111 ) ;
#70 = ORIENTED_EDGE ( 'NONE', *, *, #106, .T. ) ;
#71 = ORIENTED_EDGE ( 'NONE', *, *, #190, .T. ) ;
#72 = ORIENTED_EDGE ( 'NONE', *, *, #2, .T. ) ;
#73 = CALENDAR_DATE ( 2022, 20, 6 ) ;
#74 = DIRECTION ( 'NONE',  ( 1.000000000000000000, 0.000000000000000000, 0.000000000000000000 ) ) ;
#75 = LOCAL_TIME ( 11, 15, 40.00000000000000000, #62 ) ;
#76 = DIRECTION ( 'NONE',  ( 0.000000000000000000, 0.000000000000000000, 1.000000000000000000 ) ) ;
#77 = CALENDAR_DATE ( 2022, 20, 6 ) ;
#78 = ADVANCED_FACE ( 'NONE', ( #124 ), #69, .F. ) ;
#79 = DIRECTION ( 'NONE',  ( 1.000000000000000000, 0.000000000000000000, -0.000000000000000000 ) ) ;
#80 = PERSON_AND_ORGANIZATION_ROLE ( 'creator' ) ;
#81 = AXIS2_PLACEMENT_3D ( 'NONE', #134, #133, #181 ) ;
#82 = DIRECTION ( 'NONE',  ( -1.000000000000000000, 0.000000000000000000, 0.000000000000000000 ) ) ;
#83 = DATE_AND_TIME ( #170, #75 ) ;
#84 = CARTESIAN_POINT ( 'NONE',  ( 20.00000000000000000, 2.449293598294706513E-15, 10.00000000000000000 ) ) ;
#85 = DIRECTION ( 'NONE',  ( -0.000000000000000000, -0.000000000000000000, -1.000000000000000000 ) ) ;
#86 = PERSON_AND_ORGANIZATION ( #117, #120 ) ;
#87 = LOCAL_TIME ( 11, 15, 40.00000000000000000, #270 ) ;
#88 = DIRECTION ( 'NONE',  ( 1.000000000000000000, 0.000000000000000000, 0.000000000000000000 ) ) ;
#89 = DIRECTION ( 'NONE',  ( -0.000000000000000000, -0.000000000000000000, -1.000000000000000000 ) ) ;
#90 = CC_DESIGN_DATE_AND_TIME_ASSIGNMENT ( #58, #11, ( #113 ) ) ;
#91 = AXIS2_PLACEMENT_3D ( 'NONE', #29, #154, #74 ) ;
#92 = ORIENTED_EDGE ( 'NONE', *, *, #142, .T. ) ;
#93 = AXIS2_PLACEMENT_3D ( 'NONE', #38, #301, #203 ) ;
#94 = VERTEX_POINT ( 'NONE', #100 ) ;
#95 = EDGE_LOOP ( 'NONE', ( #19, #115, #168, #21 ) ) ;
#96 = ORIENTED_EDGE ( 'NONE', *, *, #147, .T. ) ;
#97 = EDGE_LOOP ( 'NONE', ( #169, #145, #208, #189 ) ) ;
#98 = EDGE_CURVE ( 'NONE', #148, #257, #234, .T. ) ;
#99 = LINE ( 'NONE', #3, #13 ) ;
#100 = CARTESIAN_POINT ( 'NONE',  ( -20.00000000000000000, 0.000000000000000000, 10.00000000000000000 ) ) ;
#101 = DATE_AND_TIME ( #73, #20 ) ;
#102 = DIRECTION ( 'NONE',  ( 1.000000000000000000, 0.000000000000000000, 0.000000000000000000 ) ) ;
#103 = CYLINDRICAL_SURFACE ( 'NONE', #200, 16.00000000000000000 ) ;
#104 = DATE_AND_TIME ( #272, #293 ) ;
#105 = DIRECTION ( 'NONE',  ( -0.000000000000000000, -0.000000000000000000, -1.000000000000000000 ) ) ;
#106 = EDGE_CURVE ( 'NONE', #94, #232, #137, .T. ) ;
#107 = APPLICATION_PROTOCOL_DEFINITION ( 'international standard', 'config_control_design', 1994, #235 ) ;
#108 = DIRECTION ( 'NONE',  ( 1.000000000000000000, 0.000000000000000000, -0.000000000000000000 ) ) ;
#109 = AXIS2_PLACEMENT_3D ( 'NONE', #291, #238, #179 ) ;
#110 = FACE_OUTER_BOUND ( 'NONE', #280, .T. ) ;
#111 = CC_DESIGN_PERSON_AND_ORGANIZATION_ASSIGNMENT ( #30, #80, ( #128 ) ) ;
#112 = CYLINDRICAL_SURFACE ( 'NONE', #253, 20.00000000000000000 ) ;
#113 = PRODUCT_DEFINITION ( 'NEZNÁMÝ', '', #128, #300 ) ;
#114 = EDGE_LOOP ( 'NONE', ( #209, #258 ) ) ;
#115 = ORIENTED_EDGE ( 'NONE', *, *, #230, .T. ) ;
#116 = ORIENTED_EDGE ( 'NONE', *, *, #106, .F. ) ;
#117 = PERSON ( 'NEURÈENÝ', 'NEURÈENÝ', 'NEURÈENÝ', ('NEURÈENÝ'), ('NEURÈENÝ'), ('NEURÈENÝ') ) ;
#118 = ORIENTED_EDGE ( 'NONE', *, *, #294, .F. ) ;
#119 = PERSON_AND_ORGANIZATION ( #117, #120 ) ;
#120 = ORGANIZATION ( 'NEURÈENÝ', 'NEURÈENÝ', '' ) ;
#121 = APPROVAL ( #223, 'NEURÈENÝ' ) ;
#122 = COORDINATED_UNIVERSAL_TIME_OFFSET ( 1, 0, .AHEAD. ) ;
#123 = DIRECTION ( 'NONE',  ( 1.000000000000000000, 0.000000000000000000, 0.000000000000000000 ) ) ;
#124 = FACE_OUTER_BOUND ( 'NONE', #95, .T. ) ;
#125 = CYLINDRICAL_SURFACE ( 'NONE', #185, 20.00000000000000000 ) ;
#126 = APPROVAL_ROLE ( '' ) ;
#127 = CIRCLE ( 'NONE', #267, 16.19999999999999929 ) ;
#128 = PRODUCT_DEFINITION_FORMATION_WITH_SPECIFIED_SOURCE ( 'LIBOVOLNÝ', '', #141, .NOT_KNOWN. ) ;
#129 = CARTESIAN_POINT ( 'NONE',  ( 0.000000000000000000, 0.000000000000000000, 10.00000000000000000 ) ) ;
#130 = CARTESIAN_POINT ( 'NONE',  ( 20.00000000000000000, 2.449293598294706513E-15, 0.000000000000000000 ) ) ;
#131 = CARTESIAN_POINT ( 'NONE',  ( -16.19999999999999929, 1.983927814618711846E-15, 9.999999999999992895 ) ) ;
#132 = APPROVAL_STATUS ( 'not_yet_approved' ) ;
#133 = DIRECTION ( 'NONE',  ( 0.000000000000000000, -1.000000000000000000, 0.000000000000000000 ) ) ;
#134 = CARTESIAN_POINT ( 'NONE',  ( 16.19999999999999929, 0.000000000000000000, 10.19999999999998685 ) ) ;
#135 = ADVANCED_FACE ( 'NONE', ( #153 ), #125, .T. ) ;
#136 = CARTESIAN_POINT ( 'NONE',  ( -16.00000000000000000, 0.000000000000000000, 1210.000000000000000 ) ) ;
#137 = CIRCLE ( 'NONE', #44, 20.00000000000000000 ) ;
#138 = VECTOR ( 'NONE', #57, 1000.000000000000000 ) ;
#139 = LINE ( 'NONE', #246, #204 ) ;
#140 = DIRECTION ( 'NONE',  ( 1.000000000000000000, 0.000000000000000000, 0.000000000000000000 ) ) ;
#141 = PRODUCT ( '276e', '276e', '', ( #47 ) ) ;
#142 = EDGE_CURVE ( 'NONE', #94, #303, #99, .T. ) ;
#143 = CLOSED_SHELL ( 'NONE', ( #78, #50, #220, #135, #259, #193, #46, #157, #64 ) ) ;
#144 = CC_DESIGN_SECURITY_CLASSIFICATION ( #163, ( #128 ) ) ;
#145 = ORIENTED_EDGE ( 'NONE', *, *, #213, .T. ) ;
#146 = ORIENTED_EDGE ( 'NONE', *, *, #142, .F. ) ;
#147 = EDGE_CURVE ( 'NONE', #257, #192, #219, .T. ) ;
#148 = VERTEX_POINT ( 'NONE', #286 ) ;
#149 = ORIENTED_EDGE ( 'NONE', *, *, #198, .F. ) ;
#150 = AXIS2_PLACEMENT_3D ( 'NONE', #214, #271, #102 ) ;
#151 = DIRECTION ( 'NONE',  ( 1.000000000000000000, 0.000000000000000000, 0.000000000000000000 ) ) ;
#152 = COORDINATED_UNIVERSAL_TIME_OFFSET ( 1, 0, .AHEAD. ) ;
#153 = FACE_OUTER_BOUND ( 'NONE', #23, .T. ) ;
#154 = DIRECTION ( 'NONE',  ( 0.000000000000000000, 0.000000000000000000, 1.000000000000000000 ) ) ;
#155 = DIRECTION ( 'NONE',  ( 1.000000000000000000, 0.000000000000000000, 0.000000000000000000 ) ) ;
#156 = CARTESIAN_POINT ( 'NONE',  ( 16.19999999999999929, 0.000000000000000000, 9.999999999999992895 ) ) ;
#157 = ADVANCED_FACE ( 'NONE', ( #288 ), #35, .T. ) ;
#158 = CARTESIAN_POINT ( 'NONE',  ( 0.000000000000000000, 0.000000000000000000, 10.00000000000000000 ) ) ;
#159 = CIRCLE ( 'NONE', #52, 20.00000000000000000 ) ;
#160 = FACE_BOUND ( 'NONE', #222, .T. ) ;
#161 = CC_DESIGN_PERSON_AND_ORGANIZATION_ASSIGNMENT ( #177, #287, ( #163 ) ) ;
#162 = CARTESIAN_POINT ( 'NONE',  ( -16.00000000000000000, 0.000000000000000000, 10.19999999999998685 ) ) ;
#163 = SECURITY_CLASSIFICATION ( '', '', #195 ) ;
#164 = CARTESIAN_POINT ( 'NONE',  ( 0.000000000000000000, 0.000000000000000000, 0.000000000000000000 ) ) ;
#165 = EDGE_CURVE ( 'NONE', #232, #94, #159, .T. ) ;
#166 = ORIENTED_EDGE ( 'NONE', *, *, #251, .F. ) ;
#167 = AXIS2_PLACEMENT_3D ( 'NONE', #6, #199, #82 ) ;
#168 = ORIENTED_EDGE ( 'NONE', *, *, #2, .F. ) ;
#169 = ORIENTED_EDGE ( 'NONE', *, *, #98, .F. ) ;
#170 = CALENDAR_DATE ( 2022, 20, 6 ) ;
#171 = CARTESIAN_POINT ( 'NONE',  ( 0.000000000000000000, 0.000000000000000000, 1210.000000000000000 ) ) ;
#172 = PERSON_AND_ORGANIZATION ( #117, #120 ) ;
#173 = APPROVAL_DATE_TIME ( #101, #121 ) ;
#174 = ORIENTED_EDGE ( 'NONE', *, *, #251, .T. ) ;
#175 = APPROVAL_DATE_TIME ( #83, #237 ) ;
#176 = DIRECTION ( 'NONE',  ( -1.000000000000000000, 0.000000000000000000, 0.000000000000000000 ) ) ;
#177 = PERSON_AND_ORGANIZATION ( #117, #120 ) ;
#178 = AXIS2_PLACEMENT_3D ( 'NONE', #252, #226, #183 ) ;
#179 = DIRECTION ( 'NONE',  ( 1.000000000000000000, 0.000000000000000000, 0.000000000000000000 ) ) ;
#180 = CARTESIAN_POINT ( 'NONE',  ( -20.00000000000000000, 0.000000000000000000, 0.000000000000000000 ) ) ;
#181 = DIRECTION ( 'NONE',  ( 0.000000000000000000, 0.000000000000000000, -1.000000000000000000 ) ) ;
#182 = DIRECTION ( 'NONE',  ( -0.000000000000000000, -0.000000000000000000, -1.000000000000000000 ) ) ;
#183 = DIRECTION ( 'NONE',  ( -1.000000000000000000, 1.224646799147353947E-16, 0.000000000000000000 ) ) ;
#184 =( NAMED_UNIT ( * ) SI_UNIT ( $, .STERADIAN. ) SOLID_ANGLE_UNIT ( ) );
#185 = AXIS2_PLACEMENT_3D ( 'NONE', #215, #241, #1 ) ;
#186 = CC_DESIGN_PERSON_AND_ORGANIZATION_ASSIGNMENT ( #263, #266, ( #113 ) ) ;
#187 = VERTEX_POINT ( 'NONE', #130 ) ;
#188 = ORIENTED_EDGE ( 'NONE', *, *, #198, .T. ) ;
#189 = ORIENTED_EDGE ( 'NONE', *, *, #147, .F. ) ;
#190 = EDGE_CURVE ( 'NONE', #307, #24, #34, .T. ) ;
#191 = AXIS2_PLACEMENT_3D ( 'NONE', #278, #205, #88 ) ;
#192 = VERTEX_POINT ( 'NONE', #162 ) ;
#193 = ADVANCED_FACE ( 'NONE', ( #14 ), #66, .F. ) ;
#194 = DIRECTION ( 'NONE',  ( -0.000000000000000000, -0.000000000000000000, -1.000000000000000000 ) ) ;
#195 = SECURITY_CLASSIFICATION_LEVEL ( 'unclassified' ) ;
#196 = CARTESIAN_POINT ( 'NONE',  ( -16.00000000000000000, 0.000000000000000000, 1210.000000000000000 ) ) ;
#197 = DIRECTION ( 'NONE',  ( 0.000000000000000000, 0.000000000000000000, 1.000000000000000000 ) ) ;
#198 = EDGE_CURVE ( 'NONE', #257, #148, #306, .T. ) ;
#199 = DIRECTION ( 'NONE',  ( -0.000000000000000000, -0.000000000000000000, -1.000000000000000000 ) ) ;
#200 = AXIS2_PLACEMENT_3D ( 'NONE', #31, #105, #176 ) ;
#201 = CARTESIAN_POINT ( 'NONE',  ( 0.000000000000000000, 0.000000000000000000, 0.000000000000000000 ) ) ;
#202 = CC_DESIGN_PERSON_AND_ORGANIZATION_ASSIGNMENT ( #86, #281, ( #141 ) ) ;
#203 = DIRECTION ( 'NONE',  ( 1.000000000000000000, 0.000000000000000000, 0.000000000000000000 ) ) ;
#204 = VECTOR ( 'NONE', #89, 1000.000000000000000 ) ;
#205 = DIRECTION ( 'NONE',  ( 0.000000000000000000, 0.000000000000000000, 1.000000000000000000 ) ) ;
#206 = PLANE ( 'NONE',  #59 ) ;
#207 =( GEOMETRIC_REPRESENTATION_CONTEXT ( 3 ) GLOBAL_UNCERTAINTY_ASSIGNED_CONTEXT ( ( #292 ) ) GLOBAL_UNIT_ASSIGNED_CONTEXT ( ( #299, #67, #184 ) ) REPRESENTATION_CONTEXT ( 'NONE', 'WORKASPACE' ) );
#208 = ORIENTED_EDGE ( 'NONE', *, *, #294, .T. ) ;
#209 = ORIENTED_EDGE ( 'NONE', *, *, #68, .F. ) ;
#210 = ORIENTED_EDGE ( 'NONE', *, *, #213, .F. ) ;
#211 = CIRCLE ( 'NONE', #65, 16.00000000000000000 ) ;
#212 = DIRECTION ( 'NONE',  ( 1.000000000000000000, 0.000000000000000000, 0.000000000000000000 ) ) ;
#213 = EDGE_CURVE ( 'NONE', #148, #307, #139, .T. ) ;
#214 = CARTESIAN_POINT ( 'NONE',  ( 0.000000000000000000, 0.000000000000000000, 10.19999999999998685 ) ) ;
#215 = CARTESIAN_POINT ( 'NONE',  ( 0.000000000000000000, 0.000000000000000000, 10.00000000000000000 ) ) ;
#216 = MANIFOLD_SOLID_BREP ( 'Zaoblit1', #143 ) ;
#217 = CC_DESIGN_APPROVAL ( #237, ( #113 ) ) ;
#218 = CALENDAR_DATE ( 2022, 20, 6 ) ;
#219 = LINE ( 'NONE', #196, #138 ) ;
#220 = ADVANCED_FACE ( 'NONE', ( #227 ), #112, .T. ) ;
#221 = APPROVAL_STATUS ( 'not_yet_approved' ) ;
#222 = EDGE_LOOP ( 'NONE', ( #72, #10 ) ) ;
#223 = APPROVAL_STATUS ( 'not_yet_approved' ) ;
#224 = CARTESIAN_POINT ( 'NONE',  ( 0.000000000000000000, 0.000000000000000000, 1210.000000000000000 ) ) ;
#225 = VECTOR ( 'NONE', #37, 1000.000000000000000 ) ;
#226 = DIRECTION ( 'NONE',  ( 1.224646799147353207E-16, 1.000000000000000000, -0.000000000000000000 ) ) ;
#227 = FACE_OUTER_BOUND ( 'NONE', #304, .T. ) ;
#228 = CIRCLE ( 'NONE', #93, 20.00000000000000000 ) ;
#229 = DIRECTION ( 'NONE',  ( 0.000000000000000000, 0.000000000000000000, 1.000000000000000000 ) ) ;
#230 = EDGE_CURVE ( 'NONE', #192, #236, #261, .T. ) ;
#231 = ORIENTED_EDGE ( 'NONE', *, *, #165, .F. ) ;
#232 = VERTEX_POINT ( 'NONE', #84 ) ;
#233 = APPLICATION_PROTOCOL_DEFINITION ( 'international standard', 'config_control_design', 1994, #15 ) ;
#234 = CIRCLE ( 'NONE', #91, 16.00000000000000000 ) ;
#235 = APPLICATION_CONTEXT ( 'configuration controlled 3d designs of mechanical parts and assemblies' ) ;
#236 = VERTEX_POINT ( 'NONE', #131 ) ;
#237 = APPROVAL ( #132, 'NEURÈENÝ' ) ;
#238 = DIRECTION ( 'NONE',  ( 0.000000000000000000, 0.000000000000000000, 1.000000000000000000 ) ) ;
#239 = APPROVAL_DATE_TIME ( #104, #22 ) ;
#240 = CARTESIAN_POINT ( 'NONE',  ( 0.000000000000000000, 0.000000000000000000, 10.00000000000000000 ) ) ;
#241 = DIRECTION ( 'NONE',  ( -0.000000000000000000, -0.000000000000000000, -1.000000000000000000 ) ) ;
#242 = CC_DESIGN_APPROVAL ( #22, ( #128 ) ) ;
#243 = ORIENTED_EDGE ( 'NONE', *, *, #68, .T. ) ;
#244 = DATE_TIME_ROLE ( 'classification_date' ) ;
#245 = DIRECTION ( 'NONE',  ( 1.000000000000000000, 0.000000000000000000, 0.000000000000000000 ) ) ;
#246 = CARTESIAN_POINT ( 'NONE',  ( 16.00000000000000000, 1.959434878635765131E-15, 1210.000000000000000 ) ) ;
#247 = APPROVAL_PERSON_ORGANIZATION ( #119, #237, #284 ) ;
#248 = EDGE_CURVE ( 'NONE', #236, #24, #45, .T. ) ;
#249 = DIRECTION ( 'NONE',  ( 0.000000000000000000, 0.000000000000000000, 1.000000000000000000 ) ) ;
#250 = DIRECTION ( 'NONE',  ( -1.000000000000000000, 0.000000000000000000, 0.000000000000000000 ) ) ;
#251 = EDGE_CURVE ( 'NONE', #232, #187, #17, .T. ) ;
#252 = CARTESIAN_POINT ( 'NONE',  ( -16.19999999999999929, 1.983927814618711846E-15, 10.19999999999998685 ) ) ;
#253 = AXIS2_PLACEMENT_3D ( 'NONE', #158, #85, #250 ) ;
#254 = DIRECTION ( 'NONE',  ( 0.000000000000000000, 0.000000000000000000, 1.000000000000000000 ) ) ;
#255 = ORIENTED_EDGE ( 'NONE', *, *, #305, .T. ) ;
#256 = CC_DESIGN_PERSON_AND_ORGANIZATION_ASSIGNMENT ( #7, #4, ( #128 ) ) ;
#257 = VERTEX_POINT ( 'NONE', #136 ) ;
#258 = ORIENTED_EDGE ( 'NONE', *, *, #305, .F. ) ;
#259 = ADVANCED_FACE ( 'NONE', ( #160, #110 ), #206, .T. ) ;
#260 = EDGE_LOOP ( 'NONE', ( #262, #118, #71, #282 ) ) ;
#261 = CIRCLE ( 'NONE', #178, 0.1999999999999987899 ) ;
#262 = ORIENTED_EDGE ( 'NONE', *, *, #230, .F. ) ;
#263 = PERSON_AND_ORGANIZATION ( #117, #120 ) ;
#264 = EDGE_CURVE ( 'NONE', #192, #307, #211, .T. ) ;
#265 = CARTESIAN_POINT ( 'NONE',  ( 0.000000000000000000, 0.000000000000000000, 0.000000000000000000 ) ) ;
#266 = PERSON_AND_ORGANIZATION_ROLE ( 'creator' ) ;
#267 = AXIS2_PLACEMENT_3D ( 'NONE', #129, #36, #151 ) ;
#268 = CYLINDRICAL_SURFACE ( 'NONE', #167, 16.00000000000000000 ) ;
#269 = LOCAL_TIME ( 11, 15, 40.00000000000000000, #152 ) ;
#270 = COORDINATED_UNIVERSAL_TIME_OFFSET ( 1, 0, .AHEAD. ) ;
#271 = DIRECTION ( 'NONE',  ( 0.000000000000000000, 0.000000000000000000, 1.000000000000000000 ) ) ;
#272 = CALENDAR_DATE ( 2022, 20, 6 ) ;
#273 = DIRECTION ( 'NONE',  ( 1.000000000000000000, 0.000000000000000000, -0.000000000000000000 ) ) ;
#274 = CC_DESIGN_DATE_AND_TIME_ASSIGNMENT ( #56, #244, ( #163 ) ) ;
#275 = CARTESIAN_POINT ( 'NONE',  ( 16.00000000000000000, 1.959434878635765131E-15, 10.19999999999998685 ) ) ;
#276 = APPROVAL_PERSON_ORGANIZATION ( #172, #22, #9 ) ;
#277 = DIRECTION ( 'NONE',  ( 0.000000000000000000, 0.000000000000000000, 1.000000000000000000 ) ) ;
#278 = CARTESIAN_POINT ( 'NONE',  ( 0.000000000000000000, 0.000000000000000000, 10.19999999999998685 ) ) ;
#279 = APPROVAL_PERSON_ORGANIZATION ( #32, #121, #126 ) ;
#280 = EDGE_LOOP ( 'NONE', ( #70, #48 ) ) ;
#281 = PERSON_AND_ORGANIZATION_ROLE ( 'design_owner' ) ;
#282 = ORIENTED_EDGE ( 'NONE', *, *, #248, .F. ) ;
#283 = FACE_OUTER_BOUND ( 'NONE', #8, .T. ) ;
#284 = APPROVAL_ROLE ( '' ) ;
#285 = CC_DESIGN_APPROVAL ( #121, ( #163 ) ) ;
#286 = CARTESIAN_POINT ( 'NONE',  ( 16.00000000000000000, 1.959434878635765131E-15, 1210.000000000000000 ) ) ;
#287 = PERSON_AND_ORGANIZATION_ROLE ( 'classification_officer' ) ;
#288 = FACE_OUTER_BOUND ( 'NONE', #302, .T. ) ;
#289 = CARTESIAN_POINT ( 'NONE',  ( 0.000000000000000000, 0.000000000000000000, 10.00000000000000000 ) ) ;
#290 = ADVANCED_BREP_SHAPE_REPRESENTATION ( '276e', ( #216, #5 ), #207 ) ;
#291 = CARTESIAN_POINT ( 'NONE',  ( 0.000000000000000000, 0.000000000000000000, 10.19999999999998685 ) ) ;
#292 = UNCERTAINTY_MEASURE_WITH_UNIT (LENGTH_MEASURE( 1.000000000000000082E-05 ), #299, 'distance_accuracy_value', 'NONE');
#293 = LOCAL_TIME ( 11, 15, 40.00000000000000000, #54 ) ;
#294 = EDGE_CURVE ( 'NONE', #307, #192, #298, .T. ) ;
#295 = CARTESIAN_POINT ( 'NONE',  ( 0.000000000000000000, 0.000000000000000000, 10.00000000000000000 ) ) ;
#296 = DIRECTION ( 'NONE',  ( 0.000000000000000000, 0.000000000000000000, 1.000000000000000000 ) ) ;
#297 = CIRCLE ( 'NONE', #33, 20.00000000000000000 ) ;
#298 = CIRCLE ( 'NONE', #191, 16.00000000000000000 ) ;
#299 =( LENGTH_UNIT ( ) NAMED_UNIT ( * ) SI_UNIT ( .MILLI., .METRE. ) );
#300 = DESIGN_CONTEXT ( 'detailed design', #15, 'design' ) ;
#301 = DIRECTION ( 'NONE',  ( 0.000000000000000000, 0.000000000000000000, 1.000000000000000000 ) ) ;
#302 = EDGE_LOOP ( 'NONE', ( #188, #51 ) ) ;
#303 = VERTEX_POINT ( 'NONE', #180 ) ;
#304 = EDGE_LOOP ( 'NONE', ( #231, #174, #255, #146 ) ) ;
#305 = EDGE_CURVE ( 'NONE', #187, #303, #228, .T. ) ;
#306 = CIRCLE ( 'NONE', #39, 16.00000000000000000 ) ;
#307 = VERTEX_POINT ( 'NONE', #275 ) ;
ENDSEC;
END-ISO-10303-21;
