ISO-10303-21;
HEADER;
FILE_DESCRIPTION (( 'STEP AP203' ),
    '1' );
FILE_NAME ('ab44.STEP',
    '2022-06-20T10:05:56',
    ( '' ),
    ( '' ),
    'SwSTEP 2.0',
    'SolidWorks 2019',
    '' );
FILE_SCHEMA (( 'CONFIG_CONTROL_DESIGN' ));
ENDSEC;

DATA;
#1 = CARTESIAN_POINT ( 'NONE',  ( 0.000000000000000000, 0.000000000000000000, 3.000000000000000000 ) ) ;
#2 = ORGANIZATION ( 'NEURÈENÝ', 'NEURÈENÝ', '' ) ;
#3 = AXIS2_PLACEMENT_3D ( 'NONE', #40, #49, #53 ) ;
#4 = ORIENTED_EDGE ( 'NONE', *, *, #14, .T. ) ;
#5 = CARTESIAN_POINT ( 'NONE',  ( -4.000000000000000000, 0.000000000000000000, 3.000000000000000000 ) ) ;
#6 = ORIENTED_EDGE ( 'NONE', *, *, #301, .F. ) ;
#7 = CARTESIAN_POINT ( 'NONE',  ( 0.000000000000000000, 0.000000000000000000, 0.000000000000000000 ) ) ;
#8 = DIRECTION ( 'NONE',  ( -1.000000000000000000, 0.000000000000000000, 0.000000000000000000 ) ) ;
#9 = CARTESIAN_POINT ( 'NONE',  ( 4.000000000000000000, 4.898587196589412829E-16, 3.000000000000000000 ) ) ;
#10 = CARTESIAN_POINT ( 'NONE',  ( 0.000000000000000000, 0.000000000000000000, 3.200000000000008171 ) ) ;
#11 = LOCAL_TIME ( 12, 5, 56.00000000000000000, #33 ) ;
#12 = DIRECTION ( 'NONE',  ( 1.000000000000000000, 0.000000000000000000, 0.000000000000000000 ) ) ;
#13 = DATE_TIME_ROLE ( 'creation_date' ) ;
#14 = EDGE_CURVE ( 'NONE', #168, #260, #113, .T. ) ;
#15 = CARTESIAN_POINT ( 'NONE',  ( 0.000000000000000000, 0.000000000000000000, 3.000000000000000000 ) ) ;
#16 = AXIS2_PLACEMENT_3D ( 'NONE', #202, #131, #20 ) ;
#17 = CC_DESIGN_DATE_AND_TIME_ASSIGNMENT ( #224, #13, ( #164 ) ) ;
#18 = ORIENTED_EDGE ( 'NONE', *, *, #62, .F. ) ;
#19 = EDGE_CURVE ( 'NONE', #254, #43, #236, .T. ) ;
#20 = DIRECTION ( 'NONE',  ( 1.000000000000000000, 0.000000000000000000, 0.000000000000000000 ) ) ;
#21 = EDGE_LOOP ( 'NONE', ( #185, #18 ) ) ;
#22 = CIRCLE ( 'NONE', #102, 2.250000000000000000 ) ;
#23 = PLANE ( 'NONE',  #134 ) ;
#24 = CARTESIAN_POINT ( 'NONE',  ( 0.000000000000000000, 0.000000000000000000, 0.000000000000000000 ) ) ;
#25 = PERSON_AND_ORGANIZATION ( #42, #2 ) ;
#26 = ORIENTED_EDGE ( 'NONE', *, *, #230, .F. ) ;
#27 = ORIENTED_EDGE ( 'NONE', *, *, #241, .F. ) ;
#28 = ORIENTED_EDGE ( 'NONE', *, *, #84, .T. ) ;
#29 = AXIS2_PLACEMENT_3D ( 'NONE', #273, #217, #176 ) ;
#30 = CARTESIAN_POINT ( 'NONE',  ( 0.000000000000000000, 0.000000000000000000, 3.200000000000008171 ) ) ;
#31 = APPLICATION_PROTOCOL_DEFINITION ( 'international standard', 'config_control_design', 1994, #287 ) ;
#32 = SHAPE_DEFINITION_REPRESENTATION ( #82, #198 ) ;
#33 = COORDINATED_UNIVERSAL_TIME_OFFSET ( 1, 0, .AHEAD. ) ;
#34 = DIRECTION ( 'NONE',  ( -0.000000000000000000, -0.000000000000000000, -1.000000000000000000 ) ) ;
#35 = AXIS2_PLACEMENT_3D ( 'NONE', #201, #78, #278 ) ;
#36 = ADVANCED_FACE ( 'NONE', ( #233, #171 ), #23, .T. ) ;
#37 = DATE_AND_TIME ( #81, #11 ) ;
#38 = CARTESIAN_POINT ( 'NONE',  ( -2.250000000000000000, 0.000000000000000000, 163.0000000000000000 ) ) ;
#39 = VERTEX_POINT ( 'NONE', #211 ) ;
#40 = CARTESIAN_POINT ( 'NONE',  ( 0.000000000000000000, 0.000000000000000000, 3.000000000000000000 ) ) ;
#41 = ORIENTED_EDGE ( 'NONE', *, *, #19, .T. ) ;
#42 = PERSON ( 'NEURÈENÝ', 'NEURÈENÝ', 'NEURÈENÝ', ('NEURÈENÝ'), ('NEURÈENÝ'), ('NEURÈENÝ') ) ;
#43 = VERTEX_POINT ( 'NONE', #89 ) ;
#44 = DIRECTION ( 'NONE',  ( -0.000000000000000000, -0.000000000000000000, -1.000000000000000000 ) ) ;
#45 = PLANE ( 'NONE',  #57 ) ;
#46 = CLOSED_SHELL ( 'NONE', ( #210, #256, #200, #138, #36, #148, #268, #86, #119 ) ) ;
#47 = DIRECTION ( 'NONE',  ( 0.000000000000000000, 0.000000000000000000, -1.000000000000000000 ) ) ;
#48 = ORIENTED_EDGE ( 'NONE', *, *, #100, .F. ) ;
#49 = DIRECTION ( 'NONE',  ( 0.000000000000000000, 0.000000000000000000, 1.000000000000000000 ) ) ;
#50 = LINE ( 'NONE', #9, #219 ) ;
#51 =( LENGTH_UNIT ( ) NAMED_UNIT ( * ) SI_UNIT ( .MILLI., .METRE. ) );
#52 = CARTESIAN_POINT ( 'NONE',  ( 0.000000000000000000, 0.000000000000000000, 3.200000000000008171 ) ) ;
#53 = DIRECTION ( 'NONE',  ( 1.000000000000000000, 0.000000000000000000, 0.000000000000000000 ) ) ;
#54 = TOROIDAL_SURFACE ( 'NONE', #35, 2.449999999999999734, 0.2000000000000000111 ) ;
#55 = FACE_OUTER_BOUND ( 'NONE', #208, .T. ) ;
#56 = CARTESIAN_POINT ( 'NONE',  ( 0.000000000000000000, 0.000000000000000000, 163.0000000000000000 ) ) ;
#57 = AXIS2_PLACEMENT_3D ( 'NONE', #143, #116, #92 ) ;
#58 = PRODUCT_DEFINITION_FORMATION_WITH_SPECIFIED_SOURCE ( 'LIBOVOLNÝ', '', #302, .NOT_KNOWN. ) ;
#59 = CC_DESIGN_PERSON_AND_ORGANIZATION_ASSIGNMENT ( #162, #276, ( #95 ) ) ;
#60 = EDGE_LOOP ( 'NONE', ( #296, #41, #218, #48 ) ) ;
#61 = ORIENTED_EDGE ( 'NONE', *, *, #183, .T. ) ;
#62 = EDGE_CURVE ( 'NONE', #304, #39, #250, .T. ) ;
#63 = AXIS2_PLACEMENT_3D ( 'NONE', #253, #277, #157 ) ;
#64 = CARTESIAN_POINT ( 'NONE',  ( -2.449999999999999734, 3.000384657911015370E-16, 3.200000000000008171 ) ) ;
#65 = CARTESIAN_POINT ( 'NONE',  ( -4.000000000000000000, 0.000000000000000000, 3.000000000000000000 ) ) ;
#66 = EDGE_LOOP ( 'NONE', ( #194, #186 ) ) ;
#67 = DESIGN_CONTEXT ( 'detailed design', #287, 'design' ) ;
#68 = ORIENTED_EDGE ( 'NONE', *, *, #19, .F. ) ;
#69 = CC_DESIGN_PERSON_AND_ORGANIZATION_ASSIGNMENT ( #115, #77, ( #164 ) ) ;
#70 = VERTEX_POINT ( 'NONE', #5 ) ;
#71 = CIRCLE ( 'NONE', #169, 0.2000000000000000944 ) ;
#72 = DATE_AND_TIME ( #195, #74 ) ;
#73 = CYLINDRICAL_SURFACE ( 'NONE', #237, 2.250000000000000000 ) ;
#74 = LOCAL_TIME ( 12, 5, 56.00000000000000000, #213 ) ;
#75 = EDGE_CURVE ( 'NONE', #39, #304, #244, .T. ) ;
#76 = DIRECTION ( 'NONE',  ( 1.000000000000000000, 0.000000000000000000, 0.000000000000000000 ) ) ;
#77 = PERSON_AND_ORGANIZATION_ROLE ( 'creator' ) ;
#78 = DIRECTION ( 'NONE',  ( 0.000000000000000000, 0.000000000000000000, 1.000000000000000000 ) ) ;
#79 = COORDINATED_UNIVERSAL_TIME_OFFSET ( 1, 0, .AHEAD. ) ;
#80 = LOCAL_TIME ( 12, 5, 56.00000000000000000, #79 ) ;
#81 = CALENDAR_DATE ( 2022, 20, 6 ) ;
#82 = PRODUCT_DEFINITION_SHAPE ( 'NONE', 'NONE',  #164 ) ;
#83 = ORIENTED_EDGE ( 'NONE', *, *, #75, .T. ) ;
#84 = EDGE_CURVE ( 'NONE', #70, #39, #289, .T. ) ;
#85 = VERTEX_POINT ( 'NONE', #240 ) ;
#86 = ADVANCED_FACE ( 'NONE', ( #170 ), #45, .T. ) ;
#87 = ORIENTED_EDGE ( 'NONE', *, *, #154, .T. ) ;
#88 = AXIS2_PLACEMENT_3D ( 'NONE', #56, #158, #8 ) ;
#89 = CARTESIAN_POINT ( 'NONE',  ( 2.250000000000000000, 2.755455298081544285E-16, 3.200000000000008171 ) ) ;
#90 = DIRECTION ( 'NONE',  ( 1.000000000000000000, 0.000000000000000000, 0.000000000000000000 ) ) ;
#91 = APPROVAL ( #283, 'NEURÈENÝ' ) ;
#92 = DIRECTION ( 'NONE',  ( 1.000000000000000000, 0.000000000000000000, -0.000000000000000000 ) ) ;
#93 = CIRCLE ( 'NONE', #280, 2.250000000000000000 ) ;
#94 = ORIENTED_EDGE ( 'NONE', *, *, #282, .T. ) ;
#95 = SECURITY_CLASSIFICATION ( '', '', #128 ) ;
#96 = APPROVAL_ROLE ( '' ) ;
#97 = DIRECTION ( 'NONE',  ( 0.000000000000000000, -1.000000000000000000, 0.000000000000000000 ) ) ;
#98 = APPROVAL ( #227, 'NEURÈENÝ' ) ;
#99 = VECTOR ( 'NONE', #239, 1000.000000000000000 ) ;
#100 = EDGE_CURVE ( 'NONE', #167, #107, #234, .T. ) ;
#101 = DIRECTION ( 'NONE',  ( -0.000000000000000000, -0.000000000000000000, -1.000000000000000000 ) ) ;
#102 = AXIS2_PLACEMENT_3D ( 'NONE', #30, #223, #12 ) ;
#103 = CARTESIAN_POINT ( 'NONE',  ( 0.000000000000000000, 0.000000000000000000, 3.000000000000000000 ) ) ;
#104 = CALENDAR_DATE ( 2022, 20, 6 ) ;
#105 = AXIS2_PLACEMENT_3D ( 'NONE', #24, #191, #187 ) ;
#106 = APPROVAL_ROLE ( '' ) ;
#107 = VERTEX_POINT ( 'NONE', #192 ) ;
#108 = CALENDAR_DATE ( 2022, 20, 6 ) ;
#109 = EDGE_LOOP ( 'NONE', ( #68, #284, #262, #87 ) ) ;
#110 = ORIENTED_EDGE ( 'NONE', *, *, #137, .F. ) ;
#111 = ORIENTED_EDGE ( 'NONE', *, *, #294, .F. ) ;
#112 = DIRECTION ( 'NONE',  ( 0.000000000000000000, 0.000000000000000000, 1.000000000000000000 ) ) ;
#113 = CIRCLE ( 'NONE', #193, 2.449999999999999734 ) ;
#114 = CC_DESIGN_APPROVAL ( #184, ( #164 ) ) ;
#115 = PERSON_AND_ORGANIZATION ( #42, #2 ) ;
#116 = DIRECTION ( 'NONE',  ( 0.000000000000000000, 0.000000000000000000, 1.000000000000000000 ) ) ;
#117 = DIRECTION ( 'NONE',  ( 0.000000000000000000, 0.000000000000000000, 1.000000000000000000 ) ) ;
#118 = ORIENTED_EDGE ( 'NONE', *, *, #137, .T. ) ;
#119 = ADVANCED_FACE ( 'NONE', ( #174 ), #220, .F. ) ;
#120 = PERSON_AND_ORGANIZATION_ROLE ( 'design_owner' ) ;
#121 = EDGE_LOOP ( 'NONE', ( #4, #172 ) ) ;
#122 = AXIS2_PLACEMENT_3D ( 'NONE', #15, #179, #126 ) ;
#123 = APPROVAL_STATUS ( 'not_yet_approved' ) ;
#124 = CYLINDRICAL_SURFACE ( 'NONE', #122, 4.000000000000000000 ) ;
#125 = CC_DESIGN_SECURITY_CLASSIFICATION ( #95, ( #58 ) ) ;
#126 = DIRECTION ( 'NONE',  ( -1.000000000000000000, 0.000000000000000000, 0.000000000000000000 ) ) ;
#127 = DIRECTION ( 'NONE',  ( 0.000000000000000000, 0.000000000000000000, 1.000000000000000000 ) ) ;
#128 = SECURITY_CLASSIFICATION_LEVEL ( 'unclassified' ) ;
#129 = DIRECTION ( 'NONE',  ( -1.000000000000000000, 0.000000000000000000, 0.000000000000000000 ) ) ;
#130 = CIRCLE ( 'NONE', #259, 0.2000000000000000944 ) ;
#131 = DIRECTION ( 'NONE',  ( 0.000000000000000000, 0.000000000000000000, 1.000000000000000000 ) ) ;
#132 = CALENDAR_DATE ( 2022, 20, 6 ) ;
#133 = PERSON_AND_ORGANIZATION ( #42, #2 ) ;
#134 = AXIS2_PLACEMENT_3D ( 'NONE', #266, #112, #149 ) ;
#135 = ORIENTED_EDGE ( 'NONE', *, *, #307, .F. ) ;
#136 = CIRCLE ( 'NONE', #160, 4.000000000000000000 ) ;
#137 = EDGE_CURVE ( 'NONE', #85, #304, #50, .T. ) ;
#138 = ADVANCED_FACE ( 'NONE', ( #55 ), #124, .T. ) ;
#139 = CARTESIAN_POINT ( 'NONE',  ( 2.449999999999999734, 0.000000000000000000, 3.200000000000008171 ) ) ;
#140 = DIRECTION ( 'NONE',  ( 1.224646799147353207E-16, 1.000000000000000000, -0.000000000000000000 ) ) ;
#141 = APPROVAL_PERSON_ORGANIZATION ( #303, #91, #299 ) ;
#142 = CARTESIAN_POINT ( 'NONE',  ( 2.250000000000000000, 2.755455298081544285E-16, 163.0000000000000000 ) ) ;
#143 = CARTESIAN_POINT ( 'NONE',  ( 0.000000000000000000, 0.000000000000000000, 163.0000000000000000 ) ) ;
#144 = CC_DESIGN_PERSON_AND_ORGANIZATION_ASSIGNMENT ( #255, #206, ( #58 ) ) ;
#145 = DIRECTION ( 'NONE',  ( -0.000000000000000000, -0.000000000000000000, -1.000000000000000000 ) ) ;
#146 =( GEOMETRIC_REPRESENTATION_CONTEXT ( 3 ) GLOBAL_UNCERTAINTY_ASSIGNED_CONTEXT ( ( #261 ) ) GLOBAL_UNIT_ASSIGNED_CONTEXT ( ( #51, #153, #215 ) ) REPRESENTATION_CONTEXT ( 'NONE', 'WORKASPACE' ) );
#147 = DIRECTION ( 'NONE',  ( 1.000000000000000000, 0.000000000000000000, 0.000000000000000000 ) ) ;
#148 = ADVANCED_FACE ( 'NONE', ( #300 ), #247, .F. ) ;
#149 = DIRECTION ( 'NONE',  ( 1.000000000000000000, 0.000000000000000000, -0.000000000000000000 ) ) ;
#150 = DIRECTION ( 'NONE',  ( -1.000000000000000000, 0.000000000000000000, 0.000000000000000000 ) ) ;
#151 = CARTESIAN_POINT ( 'NONE',  ( 4.000000000000000000, 4.898587196589412829E-16, 0.000000000000000000 ) ) ;
#152 = DIRECTION ( 'NONE',  ( 0.000000000000000000, 0.000000000000000000, 1.000000000000000000 ) ) ;
#153 =( NAMED_UNIT ( * ) PLANE_ANGLE_UNIT ( ) SI_UNIT ( $, .RADIAN. ) );
#154 = EDGE_CURVE ( 'NONE', #107, #43, #93, .T. ) ;
#155 = DIRECTION ( 'NONE',  ( 1.000000000000000000, 0.000000000000000000, 0.000000000000000000 ) ) ;
#156 = AXIS2_PLACEMENT_3D ( 'NONE', #270, #34, #129 ) ;
#157 = DIRECTION ( 'NONE',  ( 1.000000000000000000, 0.000000000000000000, 0.000000000000000000 ) ) ;
#158 = DIRECTION ( 'NONE',  ( -0.000000000000000000, -0.000000000000000000, -1.000000000000000000 ) ) ;
#159 = COORDINATED_UNIVERSAL_TIME_OFFSET ( 1, 0, .AHEAD. ) ;
#160 = AXIS2_PLACEMENT_3D ( 'NONE', #196, #117, #291 ) ;
#161 = DATE_AND_TIME ( #104, #281 ) ;
#162 = PERSON_AND_ORGANIZATION ( #42, #2 ) ;
#163 = DIRECTION ( 'NONE',  ( -0.000000000000000000, -0.000000000000000000, -1.000000000000000000 ) ) ;
#164 = PRODUCT_DEFINITION ( 'NEZNÁMÝ', '', #58, #67 ) ;
#165 = AXIS2_PLACEMENT_3D ( 'NONE', #306, #265, #90 ) ;
#166 = APPROVAL_PERSON_ORGANIZATION ( #251, #98, #106 ) ;
#167 = VERTEX_POINT ( 'NONE', #38 ) ;
#168 = VERTEX_POINT ( 'NONE', #203 ) ;
#169 = AXIS2_PLACEMENT_3D ( 'NONE', #139, #97, #47 ) ;
#170 = FACE_OUTER_BOUND ( 'NONE', #190, .T. ) ;
#171 = FACE_OUTER_BOUND ( 'NONE', #66, .T. ) ;
#172 = ORIENTED_EDGE ( 'NONE', *, *, #230, .T. ) ;
#173 = AXIS2_PLACEMENT_3D ( 'NONE', #52, #197, #155 ) ;
#174 = FACE_OUTER_BOUND ( 'NONE', #290, .T. ) ;
#175 = CARTESIAN_POINT ( 'NONE',  ( 2.250000000000000000, 2.755455298081544285E-16, 163.0000000000000000 ) ) ;
#176 = DIRECTION ( 'NONE',  ( 1.000000000000000000, 0.000000000000000000, 0.000000000000000000 ) ) ;
#177 = DIRECTION ( 'NONE',  ( 1.000000000000000000, 0.000000000000000000, -0.000000000000000000 ) ) ;
#178 = APPROVAL_PERSON_ORGANIZATION ( #242, #184, #96 ) ;
#179 = DIRECTION ( 'NONE',  ( -0.000000000000000000, -0.000000000000000000, -1.000000000000000000 ) ) ;
#180 = CARTESIAN_POINT ( 'NONE',  ( -2.449999999999999734, 3.000384657911015370E-16, 3.000000000000004441 ) ) ;
#181 = APPROVAL_DATE_TIME ( #225, #91 ) ;
#182 = DIRECTION ( 'NONE',  ( -0.000000000000000000, -0.000000000000000000, -1.000000000000000000 ) ) ;
#183 = EDGE_CURVE ( 'NONE', #167, #254, #188, .T. ) ;
#184 = APPROVAL ( #123, 'NEURÈENÝ' ) ;
#185 = ORIENTED_EDGE ( 'NONE', *, *, #75, .F. ) ;
#186 = ORIENTED_EDGE ( 'NONE', *, *, #307, .T. ) ;
#187 = DIRECTION ( 'NONE',  ( 1.000000000000000000, 0.000000000000000000, 0.000000000000000000 ) ) ;
#188 = CIRCLE ( 'NONE', #63, 2.250000000000000000 ) ;
#189 = MANIFOLD_SOLID_BREP ( 'Zaoblit1', #46 ) ;
#190 = EDGE_LOOP ( 'NONE', ( #61, #94 ) ) ;
#191 = DIRECTION ( 'NONE',  ( 0.000000000000000000, 0.000000000000000000, 1.000000000000000000 ) ) ;
#192 = CARTESIAN_POINT ( 'NONE',  ( -2.250000000000000000, 0.000000000000000000, 3.200000000000008171 ) ) ;
#193 = AXIS2_PLACEMENT_3D ( 'NONE', #1, #264, #147 ) ;
#194 = ORIENTED_EDGE ( 'NONE', *, *, #241, .T. ) ;
#195 = CALENDAR_DATE ( 2022, 20, 6 ) ;
#196 = CARTESIAN_POINT ( 'NONE',  ( 0.000000000000000000, 0.000000000000000000, 3.000000000000000000 ) ) ;
#197 = DIRECTION ( 'NONE',  ( 0.000000000000000000, 0.000000000000000000, 1.000000000000000000 ) ) ;
#198 = ADVANCED_BREP_SHAPE_REPRESENTATION ( 'ab44', ( #189, #29 ), #146 ) ;
#199 = DATE_TIME_ROLE ( 'classification_date' ) ;
#200 = ADVANCED_FACE ( 'NONE', ( #249 ), #243, .T. ) ;
#201 = CARTESIAN_POINT ( 'NONE',  ( 0.000000000000000000, 0.000000000000000000, 3.200000000000008171 ) ) ;
#202 = CARTESIAN_POINT ( 'NONE',  ( 0.000000000000000000, 0.000000000000000000, 163.0000000000000000 ) ) ;
#203 = CARTESIAN_POINT ( 'NONE',  ( 2.449999999999999734, 0.000000000000000000, 3.000000000000004441 ) ) ;
#204 = VECTOR ( 'NONE', #145, 1000.000000000000000 ) ;
#205 = APPROVAL_DATE_TIME ( #37, #98 ) ;
#206 = PERSON_AND_ORGANIZATION_ROLE ( 'creator' ) ;
#207 = ORIENTED_EDGE ( 'NONE', *, *, #274, .F. ) ;
#208 = EDGE_LOOP ( 'NONE', ( #110, #27, #28, #83 ) ) ;
#209 = CC_DESIGN_DATE_AND_TIME_ASSIGNMENT ( #161, #199, ( #95 ) ) ;
#210 = ADVANCED_FACE ( 'NONE', ( #222 ), #54, .F. ) ;
#211 = CARTESIAN_POINT ( 'NONE',  ( -4.000000000000000000, 0.000000000000000000, 0.000000000000000000 ) ) ;
#212 = EDGE_LOOP ( 'NONE', ( #135, #118, #286, #216 ) ) ;
#213 = COORDINATED_UNIVERSAL_TIME_OFFSET ( 1, 0, .AHEAD. ) ;
#214 = CARTESIAN_POINT ( 'NONE',  ( -2.250000000000000000, 0.000000000000000000, 163.0000000000000000 ) ) ;
#215 =( NAMED_UNIT ( * ) SI_UNIT ( $, .STERADIAN. ) SOLID_ANGLE_UNIT ( ) );
#216 = ORIENTED_EDGE ( 'NONE', *, *, #84, .F. ) ;
#217 = DIRECTION ( 'NONE',  ( 0.000000000000000000, 0.000000000000000000, 1.000000000000000000 ) ) ;
#218 = ORIENTED_EDGE ( 'NONE', *, *, #274, .T. ) ;
#219 = VECTOR ( 'NONE', #182, 1000.000000000000000 ) ;
#220 = TOROIDAL_SURFACE ( 'NONE', #173, 2.449999999999999734, 0.2000000000000000111 ) ;
#221 = PERSON_AND_ORGANIZATION_ROLE ( 'design_supplier' ) ;
#222 = FACE_OUTER_BOUND ( 'NONE', #292, .T. ) ;
#223 = DIRECTION ( 'NONE',  ( 0.000000000000000000, 0.000000000000000000, 1.000000000000000000 ) ) ;
#224 = DATE_AND_TIME ( #108, #297 ) ;
#225 = DATE_AND_TIME ( #132, #80 ) ;
#226 = ORIENTED_EDGE ( 'NONE', *, *, #301, .T. ) ;
#227 = APPROVAL_STATUS ( 'not_yet_approved' ) ;
#228 = ORIENTED_EDGE ( 'NONE', *, *, #14, .F. ) ;
#229 = AXIS2_PLACEMENT_3D ( 'NONE', #7, #127, #177 ) ;
#230 = EDGE_CURVE ( 'NONE', #260, #168, #252, .T. ) ;
#231 = DIRECTION ( 'NONE',  ( -1.000000000000000000, 1.224646799147353207E-16, 0.000000000000000000 ) ) ;
#232 = CC_DESIGN_APPROVAL ( #98, ( #58 ) ) ;
#233 = FACE_BOUND ( 'NONE', #121, .T. ) ;
#234 = LINE ( 'NONE', #214, #99 ) ;
#235 = VECTOR ( 'NONE', #44, 1000.000000000000000 ) ;
#236 = LINE ( 'NONE', #142, #204 ) ;
#237 = AXIS2_PLACEMENT_3D ( 'NONE', #275, #101, #150 ) ;
#238 = APPLICATION_PROTOCOL_DEFINITION ( 'international standard', 'config_control_design', 1994, #267 ) ;
#239 = DIRECTION ( 'NONE',  ( -0.000000000000000000, -0.000000000000000000, -1.000000000000000000 ) ) ;
#240 = CARTESIAN_POINT ( 'NONE',  ( 4.000000000000000000, 4.898587196589412829E-16, 3.000000000000000000 ) ) ;
#241 = EDGE_CURVE ( 'NONE', #70, #85, #305, .T. ) ;
#242 = PERSON_AND_ORGANIZATION ( #42, #2 ) ;
#243 = CYLINDRICAL_SURFACE ( 'NONE', #156, 4.000000000000000000 ) ;
#244 = CIRCLE ( 'NONE', #105, 4.000000000000000000 ) ;
#245 = MECHANICAL_CONTEXT ( 'NONE', #267, 'mechanical' ) ;
#246 = CYLINDRICAL_SURFACE ( 'NONE', #88, 2.250000000000000000 ) ;
#247 = PLANE ( 'NONE',  #229 ) ;
#248 = FACE_OUTER_BOUND ( 'NONE', #60, .T. ) ;
#249 = FACE_OUTER_BOUND ( 'NONE', #212, .T. ) ;
#250 = CIRCLE ( 'NONE', #165, 4.000000000000000000 ) ;
#251 = PERSON_AND_ORGANIZATION ( #42, #2 ) ;
#252 = CIRCLE ( 'NONE', #295, 2.449999999999999734 ) ;
#253 = CARTESIAN_POINT ( 'NONE',  ( 0.000000000000000000, 0.000000000000000000, 163.0000000000000000 ) ) ;
#254 = VERTEX_POINT ( 'NONE', #175 ) ;
#255 = PERSON_AND_ORGANIZATION ( #42, #2 ) ;
#256 = ADVANCED_FACE ( 'NONE', ( #248 ), #73, .T. ) ;
#257 = DIRECTION ( 'NONE',  ( 1.000000000000000000, 0.000000000000000000, 0.000000000000000000 ) ) ;
#258 = CC_DESIGN_PERSON_AND_ORGANIZATION_ASSIGNMENT ( #133, #221, ( #58 ) ) ;
#259 = AXIS2_PLACEMENT_3D ( 'NONE', #64, #140, #231 ) ;
#260 = VERTEX_POINT ( 'NONE', #180 ) ;
#261 = UNCERTAINTY_MEASURE_WITH_UNIT (LENGTH_MEASURE( 1.000000000000000082E-05 ), #51, 'distance_accuracy_value', 'NONE');
#262 = ORIENTED_EDGE ( 'NONE', *, *, #100, .T. ) ;
#263 = CC_DESIGN_APPROVAL ( #91, ( #95 ) ) ;
#264 = DIRECTION ( 'NONE',  ( -0.000000000000000000, -0.000000000000000000, -1.000000000000000000 ) ) ;
#265 = DIRECTION ( 'NONE',  ( 0.000000000000000000, 0.000000000000000000, 1.000000000000000000 ) ) ;
#266 = CARTESIAN_POINT ( 'NONE',  ( 0.000000000000000000, 0.000000000000000000, 3.000000000000000000 ) ) ;
#267 = APPLICATION_CONTEXT ( 'configuration controlled 3d designs of mechanical parts and assemblies' ) ;
#268 = ADVANCED_FACE ( 'NONE', ( #272 ), #246, .T. ) ;
#269 = APPROVAL_DATE_TIME ( #72, #184 ) ;
#270 = CARTESIAN_POINT ( 'NONE',  ( 0.000000000000000000, 0.000000000000000000, 3.000000000000000000 ) ) ;
#271 = CIRCLE ( 'NONE', #16, 2.250000000000000000 ) ;
#272 = FACE_OUTER_BOUND ( 'NONE', #109, .T. ) ;
#273 = CARTESIAN_POINT ( 'NONE',  ( 0.000000000000000000, 0.000000000000000000, 0.000000000000000000 ) ) ;
#274 = EDGE_CURVE ( 'NONE', #43, #107, #22, .T. ) ;
#275 = CARTESIAN_POINT ( 'NONE',  ( 0.000000000000000000, 0.000000000000000000, 163.0000000000000000 ) ) ;
#276 = PERSON_AND_ORGANIZATION_ROLE ( 'classification_officer' ) ;
#277 = DIRECTION ( 'NONE',  ( 0.000000000000000000, 0.000000000000000000, 1.000000000000000000 ) ) ;
#278 = DIRECTION ( 'NONE',  ( 1.000000000000000000, 0.000000000000000000, 0.000000000000000000 ) ) ;
#279 = PRODUCT_RELATED_PRODUCT_CATEGORY ( 'detail', '', ( #302 ) ) ;
#280 = AXIS2_PLACEMENT_3D ( 'NONE', #10, #152, #76 ) ;
#281 = LOCAL_TIME ( 12, 5, 56.00000000000000000, #298 ) ;
#282 = EDGE_CURVE ( 'NONE', #254, #167, #271, .T. ) ;
#283 = APPROVAL_STATUS ( 'not_yet_approved' ) ;
#284 = ORIENTED_EDGE ( 'NONE', *, *, #183, .F. ) ;
#285 = CC_DESIGN_PERSON_AND_ORGANIZATION_ASSIGNMENT ( #25, #120, ( #302 ) ) ;
#286 = ORIENTED_EDGE ( 'NONE', *, *, #62, .T. ) ;
#287 = APPLICATION_CONTEXT ( 'configuration controlled 3d designs of mechanical parts and assemblies' ) ;
#288 = ORIENTED_EDGE ( 'NONE', *, *, #154, .F. ) ;
#289 = LINE ( 'NONE', #65, #235 ) ;
#290 = EDGE_LOOP ( 'NONE', ( #111, #207, #226, #26 ) ) ;
#291 = DIRECTION ( 'NONE',  ( 1.000000000000000000, 0.000000000000000000, 0.000000000000000000 ) ) ;
#292 = EDGE_LOOP ( 'NONE', ( #288, #293, #228, #6 ) ) ;
#293 = ORIENTED_EDGE ( 'NONE', *, *, #294, .T. ) ;
#294 = EDGE_CURVE ( 'NONE', #107, #260, #130, .T. ) ;
#295 = AXIS2_PLACEMENT_3D ( 'NONE', #103, #163, #257 ) ;
#296 = ORIENTED_EDGE ( 'NONE', *, *, #282, .F. ) ;
#297 = LOCAL_TIME ( 12, 5, 56.00000000000000000, #159 ) ;
#298 = COORDINATED_UNIVERSAL_TIME_OFFSET ( 1, 0, .AHEAD. ) ;
#299 = APPROVAL_ROLE ( '' ) ;
#300 = FACE_OUTER_BOUND ( 'NONE', #21, .T. ) ;
#301 = EDGE_CURVE ( 'NONE', #43, #168, #71, .T. ) ;
#302 = PRODUCT ( 'ab44', 'ab44', '', ( #245 ) ) ;
#303 = PERSON_AND_ORGANIZATION ( #42, #2 ) ;
#304 = VERTEX_POINT ( 'NONE', #151 ) ;
#305 = CIRCLE ( 'NONE', #3, 4.000000000000000000 ) ;
#306 = CARTESIAN_POINT ( 'NONE',  ( 0.000000000000000000, 0.000000000000000000, 0.000000000000000000 ) ) ;
#307 = EDGE_CURVE ( 'NONE', #85, #70, #136, .T. ) ;
ENDSEC;
END-ISO-10303-21;
