ISO-10303-21;
HEADER;
FILE_DESCRIPTION (( 'STEP AP203' ),
    '1' );
FILE_NAME ('abc0.STEP',
    '2022-06-20T10:08:50',
    ( '' ),
    ( '' ),
    'SwSTEP 2.0',
    'SolidWorks 2019',
    '' );
FILE_SCHEMA (( 'CONFIG_CONTROL_DESIGN' ));
ENDSEC;

DATA;
#1 = EDGE_LOOP ( 'NONE', ( #238, #172, #101, #283 ) ) ;
#2 = ADVANCED_FACE ( 'NONE', ( #51 ), #150, .F. ) ;
#3 = LOCAL_TIME ( 12, 8, 50.00000000000000000, #297 ) ;
#4 = ORIENTED_EDGE ( 'NONE', *, *, #53, .T. ) ;
#5 = EDGE_LOOP ( 'NONE', ( #208, #22 ) ) ;
#6 = ADVANCED_FACE ( 'NONE', ( #59 ), #198, .T. ) ;
#7 = CLOSED_SHELL ( 'NONE', ( #142, #194, #237, #6, #145, #2, #214, #230, #286 ) ) ;
#8 = CC_DESIGN_APPROVAL ( #119, ( #211 ) ) ;
#9 = DIRECTION ( 'NONE',  ( -1.000000000000000000, 1.224646799147353207E-16, 0.000000000000000000 ) ) ;
#10 = DIRECTION ( 'NONE',  ( 0.000000000000000000, 0.000000000000000000, 1.000000000000000000 ) ) ;
#11 = PERSON_AND_ORGANIZATION ( #139, #106 ) ;
#12 = FACE_OUTER_BOUND ( 'NONE', #243, .T. ) ;
#13 = VECTOR ( 'NONE', #181, 1000.000000000000000 ) ;
#14 = CARTESIAN_POINT ( 'NONE',  ( 0.000000000000000000, 0.000000000000000000, 3.199999999999980638 ) ) ;
#15 = COORDINATED_UNIVERSAL_TIME_OFFSET ( 1, 0, .AHEAD. ) ;
#16 = LINE ( 'NONE', #273, #78 ) ;
#17 = APPROVAL_ROLE ( '' ) ;
#18 = DIRECTION ( 'NONE',  ( 0.000000000000000000, 0.000000000000000000, -1.000000000000000000 ) ) ;
#19 = DIRECTION ( 'NONE',  ( -0.000000000000000000, -0.000000000000000000, -1.000000000000000000 ) ) ;
#20 = CARTESIAN_POINT ( 'NONE',  ( 2.200000000000000178, 0.000000000000000000, 3.199999999999980638 ) ) ;
#21 = DESIGN_CONTEXT ( 'detailed design', #68, 'design' ) ;
#22 = ORIENTED_EDGE ( 'NONE', *, *, #166, .T. ) ;
#23 = CIRCLE ( 'NONE', #280, 2.000000000000000000 ) ;
#24 = VECTOR ( 'NONE', #213, 1000.000000000000000 ) ;
#25 = ORIENTED_EDGE ( 'NONE', *, *, #306, .F. ) ;
#26 = ORIENTED_EDGE ( 'NONE', *, *, #43, .T. ) ;
#27 = VERTEX_POINT ( 'NONE', #254 ) ;
#28 = CARTESIAN_POINT ( 'NONE',  ( -2.200000000000000178, 2.694222958124177006E-16, 3.199999999999980638 ) ) ;
#29 = AXIS2_PLACEMENT_3D ( 'NONE', #137, #63, #212 ) ;
#30 = CARTESIAN_POINT ( 'NONE',  ( 0.000000000000000000, 0.000000000000000000, 3.000000000000000000 ) ) ;
#31 = PERSON_AND_ORGANIZATION ( #139, #106 ) ;
#32 = FACE_BOUND ( 'NONE', #129, .T. ) ;
#33 = COORDINATED_UNIVERSAL_TIME_OFFSET ( 1, 0, .AHEAD. ) ;
#34 = APPROVAL_DATE_TIME ( #56, #203 ) ;
#35 = CIRCLE ( 'NONE', #128, 4.000000000000000000 ) ;
#36 = PERSON_AND_ORGANIZATION_ROLE ( 'design_owner' ) ;
#37 = CC_DESIGN_SECURITY_CLASSIFICATION ( #143, ( #211 ) ) ;
#38 = DIRECTION ( 'NONE',  ( 0.000000000000000000, 0.000000000000000000, 1.000000000000000000 ) ) ;
#39 = EDGE_CURVE ( 'NONE', #96, #265, #126, .T. ) ;
#40 = DATE_TIME_ROLE ( 'creation_date' ) ;
#41 = DIRECTION ( 'NONE',  ( 0.000000000000000000, 0.000000000000000000, 1.000000000000000000 ) ) ;
#42 = PRODUCT_DEFINITION_SHAPE ( 'NONE', 'NONE',  #97 ) ;
#43 = EDGE_CURVE ( 'NONE', #74, #27, #169, .T. ) ;
#44 = DIRECTION ( 'NONE',  ( 0.000000000000000000, 0.000000000000000000, 1.000000000000000000 ) ) ;
#45 = DIRECTION ( 'NONE',  ( 1.000000000000000000, 0.000000000000000000, 0.000000000000000000 ) ) ;
#46 = CC_DESIGN_PERSON_AND_ORGANIZATION_ASSIGNMENT ( #251, #303, ( #97 ) ) ;
#47 = ADVANCED_BREP_SHAPE_REPRESENTATION ( 'abc0', ( #218, #122 ), #216 ) ;
#48 = AXIS2_PLACEMENT_3D ( 'NONE', #196, #285, #294 ) ;
#49 = APPROVAL_PERSON_ORGANIZATION ( #269, #203, #277 ) ;
#50 = VERTEX_POINT ( 'NONE', #205 ) ;
#51 = FACE_OUTER_BOUND ( 'NONE', #219, .T. ) ;
#52 = CARTESIAN_POINT ( 'NONE',  ( 2.000000000000000000, 2.449293598294706414E-16, 3.199999999999980638 ) ) ;
#53 = EDGE_CURVE ( 'NONE', #50, #192, #141, .T. ) ;
#54 = AXIS2_PLACEMENT_3D ( 'NONE', #301, #89, #144 ) ;
#55 = APPROVAL_PERSON_ORGANIZATION ( #259, #262, #17 ) ;
#56 = DATE_AND_TIME ( #249, #94 ) ;
#57 = DIRECTION ( 'NONE',  ( 1.000000000000000000, 0.000000000000000000, 0.000000000000000000 ) ) ;
#58 = APPROVAL_STATUS ( 'not_yet_approved' ) ;
#59 = FACE_OUTER_BOUND ( 'NONE', #175, .T. ) ;
#60 = CALENDAR_DATE ( 2022, 20, 6 ) ;
#61 = DIRECTION ( 'NONE',  ( 1.000000000000000000, 0.000000000000000000, 0.000000000000000000 ) ) ;
#62 = DIRECTION ( 'NONE',  ( -1.000000000000000000, 0.000000000000000000, 0.000000000000000000 ) ) ;
#63 = DIRECTION ( 'NONE',  ( -0.000000000000000000, -0.000000000000000000, -1.000000000000000000 ) ) ;
#64 = CARTESIAN_POINT ( 'NONE',  ( 0.000000000000000000, 0.000000000000000000, 3.199999999999980638 ) ) ;
#65 = AXIS2_PLACEMENT_3D ( 'NONE', #229, #176, #133 ) ;
#66 = AXIS2_PLACEMENT_3D ( 'NONE', #117, #182, #114 ) ;
#67 = ORIENTED_EDGE ( 'NONE', *, *, #300, .F. ) ;
#68 = APPLICATION_CONTEXT ( 'configuration controlled 3d designs of mechanical parts and assemblies' ) ;
#69 = AXIS2_PLACEMENT_3D ( 'NONE', #28, #132, #9 ) ;
#70 = ORIENTED_EDGE ( 'NONE', *, *, #157, .F. ) ;
#71 = VERTEX_POINT ( 'NONE', #52 ) ;
#72 = ORIENTED_EDGE ( 'NONE', *, *, #306, .T. ) ;
#73 = EDGE_LOOP ( 'NONE', ( #244, #98, #4, #246 ) ) ;
#74 = VERTEX_POINT ( 'NONE', #111 ) ;
#75 = ORIENTED_EDGE ( 'NONE', *, *, #190, .F. ) ;
#76 = CARTESIAN_POINT ( 'NONE',  ( 0.000000000000000000, 0.000000000000000000, 3.199999999999980638 ) ) ;
#77 = DIRECTION ( 'NONE',  ( 0.000000000000000000, 0.000000000000000000, 1.000000000000000000 ) ) ;
#78 = VECTOR ( 'NONE', #298, 1000.000000000000000 ) ;
#79 = AXIS2_PLACEMENT_3D ( 'NONE', #20, #232, #18 ) ;
#80 =( NAMED_UNIT ( * ) PLANE_ANGLE_UNIT ( ) SI_UNIT ( $, .RADIAN. ) );
#81 = DIRECTION ( 'NONE',  ( 0.000000000000000000, 0.000000000000000000, 1.000000000000000000 ) ) ;
#82 = CARTESIAN_POINT ( 'NONE',  ( 0.000000000000000000, 0.000000000000000000, 0.000000000000000000 ) ) ;
#83 = ORIENTED_EDGE ( 'NONE', *, *, #307, .F. ) ;
#84 = PERSON_AND_ORGANIZATION_ROLE ( 'creator' ) ;
#85 = DIRECTION ( 'NONE',  ( 1.000000000000000000, 0.000000000000000000, 0.000000000000000000 ) ) ;
#86 = AXIS2_PLACEMENT_3D ( 'NONE', #255, #202, #62 ) ;
#87 = MECHANICAL_CONTEXT ( 'NONE', #264, 'mechanical' ) ;
#88 = CC_DESIGN_DATE_AND_TIME_ASSIGNMENT ( #290, #180, ( #143 ) ) ;
#89 = DIRECTION ( 'NONE',  ( 0.000000000000000000, 0.000000000000000000, 1.000000000000000000 ) ) ;
#90 = CALENDAR_DATE ( 2022, 20, 6 ) ;
#91 = SHAPE_DEFINITION_REPRESENTATION ( #42, #47 ) ;
#92 = FACE_OUTER_BOUND ( 'NONE', #1, .T. ) ;
#93 = CIRCLE ( 'NONE', #79, 0.2000000000000000944 ) ;
#94 = LOCAL_TIME ( 12, 8, 50.00000000000000000, #15 ) ;
#95 = ORIENTED_EDGE ( 'NONE', *, *, #121, .T. ) ;
#96 = VERTEX_POINT ( 'NONE', #102 ) ;
#97 = PRODUCT_DEFINITION ( 'NEZNÁMÝ', '', #211, #21 ) ;
#98 = ORIENTED_EDGE ( 'NONE', *, *, #157, .T. ) ;
#99 = AXIS2_PLACEMENT_3D ( 'NONE', #14, #296, #61 ) ;
#100 = CC_DESIGN_APPROVAL ( #262, ( #97 ) ) ;
#101 = ORIENTED_EDGE ( 'NONE', *, *, #300, .T. ) ;
#102 = CARTESIAN_POINT ( 'NONE',  ( 2.200000000000000178, 0.000000000000000000, 2.999999999999990674 ) ) ;
#103 = CARTESIAN_POINT ( 'NONE',  ( -2.000000000000000000, 0.000000000000000000, 3.199999999999980638 ) ) ;
#104 = PERSON_AND_ORGANIZATION ( #139, #106 ) ;
#105 = CARTESIAN_POINT ( 'NONE',  ( 0.000000000000000000, 0.000000000000000000, 803.0000000000000000 ) ) ;
#106 = ORGANIZATION ( 'NEURÈENÝ', 'NEURÈENÝ', '' ) ;
#107 = DIRECTION ( 'NONE',  ( 0.000000000000000000, 0.000000000000000000, 1.000000000000000000 ) ) ;
#108 = CARTESIAN_POINT ( 'NONE',  ( 4.000000000000000000, 4.898587196589412829E-16, 3.000000000000000000 ) ) ;
#109 = EDGE_CURVE ( 'NONE', #27, #74, #23, .T. ) ;
#110 =( LENGTH_UNIT ( ) NAMED_UNIT ( * ) SI_UNIT ( .MILLI., .METRE. ) );
#111 = CARTESIAN_POINT ( 'NONE',  ( -2.000000000000000000, 0.000000000000000000, 803.0000000000000000 ) ) ;
#112 = CC_DESIGN_PERSON_AND_ORGANIZATION_ASSIGNMENT ( #104, #136, ( #211 ) ) ;
#113 = FACE_OUTER_BOUND ( 'NONE', #242, .T. ) ;
#114 = DIRECTION ( 'NONE',  ( 1.000000000000000000, 0.000000000000000000, 0.000000000000000000 ) ) ;
#115 = EDGE_CURVE ( 'NONE', #74, #151, #16, .T. ) ;
#116 = DIRECTION ( 'NONE',  ( -0.000000000000000000, -0.000000000000000000, -1.000000000000000000 ) ) ;
#117 = CARTESIAN_POINT ( 'NONE',  ( 0.000000000000000000, 0.000000000000000000, 3.000000000000000000 ) ) ;
#118 = CC_DESIGN_APPROVAL ( #203, ( #143 ) ) ;
#119 = APPROVAL ( #228, 'NEURÈENÝ' ) ;
#120 = EDGE_LOOP ( 'NONE', ( #26, #282 ) ) ;
#121 = EDGE_CURVE ( 'NONE', #192, #50, #241, .T. ) ;
#122 = AXIS2_PLACEMENT_3D ( 'NONE', #256, #107, #231 ) ;
#123 = ORIENTED_EDGE ( 'NONE', *, *, #39, .F. ) ;
#124 = ORIENTED_EDGE ( 'NONE', *, *, #187, .T. ) ;
#125 = ORIENTED_EDGE ( 'NONE', *, *, #43, .F. ) ;
#126 = CIRCLE ( 'NONE', #247, 2.200000000000000178 ) ;
#127 = CYLINDRICAL_SURFACE ( 'NONE', #275, 2.000000000000000000 ) ;
#128 = AXIS2_PLACEMENT_3D ( 'NONE', #185, #77, #155 ) ;
#129 = EDGE_LOOP ( 'NONE', ( #284, #193 ) ) ;
#130 = PLANE ( 'NONE',  #65 ) ;
#131 = APPROVAL_ROLE ( '' ) ;
#132 = DIRECTION ( 'NONE',  ( 1.224646799147353207E-16, 1.000000000000000000, -0.000000000000000000 ) ) ;
#133 = DIRECTION ( 'NONE',  ( 1.000000000000000000, 0.000000000000000000, -0.000000000000000000 ) ) ;
#134 = DATE_AND_TIME ( #206, #293 ) ;
#135 = CARTESIAN_POINT ( 'NONE',  ( 0.000000000000000000, 0.000000000000000000, 803.0000000000000000 ) ) ;
#136 = PERSON_AND_ORGANIZATION_ROLE ( 'design_supplier' ) ;
#137 = CARTESIAN_POINT ( 'NONE',  ( 0.000000000000000000, 0.000000000000000000, 3.000000000000000000 ) ) ;
#138 = COORDINATED_UNIVERSAL_TIME_OFFSET ( 1, 0, .AHEAD. ) ;
#139 = PERSON ( 'NEURÈENÝ', 'NEURÈENÝ', 'NEURÈENÝ', ('NEURÈENÝ'), ('NEURÈENÝ'), ('NEURÈENÝ') ) ;
#140 = CARTESIAN_POINT ( 'NONE',  ( 2.000000000000000000, 2.449293598294706414E-16, 803.0000000000000000 ) ) ;
#141 = CIRCLE ( 'NONE', #177, 4.000000000000000000 ) ;
#142 = ADVANCED_FACE ( 'NONE', ( #227 ), #289, .F. ) ;
#143 = SECURITY_CLASSIFICATION ( '', '', #156 ) ;
#144 = DIRECTION ( 'NONE',  ( 1.000000000000000000, 0.000000000000000000, -0.000000000000000000 ) ) ;
#145 = ADVANCED_FACE ( 'NONE', ( #32, #276 ), #130, .T. ) ;
#146 = VERTEX_POINT ( 'NONE', #268 ) ;
#147 = ORIENTED_EDGE ( 'NONE', *, *, #115, .F. ) ;
#148 = CC_DESIGN_PERSON_AND_ORGANIZATION_ASSIGNMENT ( #154, #36, ( #240 ) ) ;
#149 = VERTEX_POINT ( 'NONE', #108 ) ;
#150 = PLANE ( 'NONE',  #48 ) ;
#151 = VERTEX_POINT ( 'NONE', #103 ) ;
#152 = AXIS2_PLACEMENT_3D ( 'NONE', #135, #224, #85 ) ;
#153 = DIRECTION ( 'NONE',  ( -0.000000000000000000, -0.000000000000000000, -1.000000000000000000 ) ) ;
#154 = PERSON_AND_ORGANIZATION ( #139, #106 ) ;
#155 = DIRECTION ( 'NONE',  ( 1.000000000000000000, 0.000000000000000000, 0.000000000000000000 ) ) ;
#156 = SECURITY_CLASSIFICATION_LEVEL ( 'unclassified' ) ;
#157 = EDGE_CURVE ( 'NONE', #149, #50, #245, .T. ) ;
#158 = DIRECTION ( 'NONE',  ( 0.000000000000000000, 0.000000000000000000, 1.000000000000000000 ) ) ;
#159 = DIRECTION ( 'NONE',  ( 1.000000000000000000, 0.000000000000000000, 0.000000000000000000 ) ) ;
#160 = DIRECTION ( 'NONE',  ( 1.000000000000000000, 0.000000000000000000, 0.000000000000000000 ) ) ;
#161 = APPLICATION_PROTOCOL_DEFINITION ( 'international standard', 'config_control_design', 1994, #68 ) ;
#162 = PLANE ( 'NONE',  #54 ) ;
#163 = LINE ( 'NONE', #140, #24 ) ;
#164 = TOROIDAL_SURFACE ( 'NONE', #281, 2.200000000000000178, 0.2000000000000000111 ) ;
#165 = AXIS2_PLACEMENT_3D ( 'NONE', #64, #44, #160 ) ;
#166 = EDGE_CURVE ( 'NONE', #149, #146, #35, .T. ) ;
#167 = ORIENTED_EDGE ( 'NONE', *, *, #121, .F. ) ;
#168 = CC_DESIGN_PERSON_AND_ORGANIZATION_ASSIGNMENT ( #11, #84, ( #211 ) ) ;
#169 = CIRCLE ( 'NONE', #152, 2.000000000000000000 ) ;
#170 = VECTOR ( 'NONE', #153, 1000.000000000000000 ) ;
#171 = ORIENTED_EDGE ( 'NONE', *, *, #190, .T. ) ;
#172 = ORIENTED_EDGE ( 'NONE', *, *, #304, .F. ) ;
#173 = ORIENTED_EDGE ( 'NONE', *, *, #109, .F. ) ;
#174 = EDGE_CURVE ( 'NONE', #151, #265, #248, .T. ) ;
#175 = EDGE_LOOP ( 'NONE', ( #70, #83, #124, #95 ) ) ;
#176 = DIRECTION ( 'NONE',  ( 0.000000000000000000, 0.000000000000000000, 1.000000000000000000 ) ) ;
#177 = AXIS2_PLACEMENT_3D ( 'NONE', #82, #38, #267 ) ;
#178 = CARTESIAN_POINT ( 'NONE',  ( 0.000000000000000000, 0.000000000000000000, 803.0000000000000000 ) ) ;
#179 = LOCAL_TIME ( 12, 8, 50.00000000000000000, #33 ) ;
#180 = DATE_TIME_ROLE ( 'classification_date' ) ;
#181 = DIRECTION ( 'NONE',  ( -0.000000000000000000, -0.000000000000000000, -1.000000000000000000 ) ) ;
#182 = DIRECTION ( 'NONE',  ( 0.000000000000000000, 0.000000000000000000, 1.000000000000000000 ) ) ;
#183 = LINE ( 'NONE', #226, #170 ) ;
#184 = CALENDAR_DATE ( 2022, 20, 6 ) ;
#185 = CARTESIAN_POINT ( 'NONE',  ( 0.000000000000000000, 0.000000000000000000, 3.000000000000000000 ) ) ;
#186 = COORDINATED_UNIVERSAL_TIME_OFFSET ( 1, 0, .AHEAD. ) ;
#187 = EDGE_CURVE ( 'NONE', #146, #192, #183, .T. ) ;
#188 = FACE_OUTER_BOUND ( 'NONE', #120, .T. ) ;
#189 = CARTESIAN_POINT ( 'NONE',  ( 0.000000000000000000, 0.000000000000000000, 3.199999999999980638 ) ) ;
#190 = EDGE_CURVE ( 'NONE', #151, #71, #236, .T. ) ;
#191 = ORIENTED_EDGE ( 'NONE', *, *, #115, .T. ) ;
#192 = VERTEX_POINT ( 'NONE', #197 ) ;
#193 = ORIENTED_EDGE ( 'NONE', *, *, #272, .T. ) ;
#194 = ADVANCED_FACE ( 'NONE', ( #12 ), #127, .T. ) ;
#195 = APPROVAL_PERSON_ORGANIZATION ( #31, #119, #131 ) ;
#196 = CARTESIAN_POINT ( 'NONE',  ( 0.000000000000000000, 0.000000000000000000, 0.000000000000000000 ) ) ;
#197 = CARTESIAN_POINT ( 'NONE',  ( -4.000000000000000000, 0.000000000000000000, 0.000000000000000000 ) ) ;
#198 = CYLINDRICAL_SURFACE ( 'NONE', #86, 4.000000000000000000 ) ;
#199 = DATE_AND_TIME ( #184, #3 ) ;
#200 = AXIS2_PLACEMENT_3D ( 'NONE', #76, #81, #159 ) ;
#201 = CIRCLE ( 'NONE', #66, 4.000000000000000000 ) ;
#202 = DIRECTION ( 'NONE',  ( -0.000000000000000000, -0.000000000000000000, -1.000000000000000000 ) ) ;
#203 = APPROVAL ( #58, 'NEURÈENÝ' ) ;
#204 = APPLICATION_PROTOCOL_DEFINITION ( 'international standard', 'config_control_design', 1994, #264 ) ;
#205 = CARTESIAN_POINT ( 'NONE',  ( 4.000000000000000000, 4.898587196589412829E-16, 0.000000000000000000 ) ) ;
#206 = CALENDAR_DATE ( 2022, 20, 6 ) ;
#207 = DIRECTION ( 'NONE',  ( 1.000000000000000000, 0.000000000000000000, 0.000000000000000000 ) ) ;
#208 = ORIENTED_EDGE ( 'NONE', *, *, #307, .T. ) ;
#209 = DIRECTION ( 'NONE',  ( -1.000000000000000000, 0.000000000000000000, 0.000000000000000000 ) ) ;
#210 = AXIS2_PLACEMENT_3D ( 'NONE', #233, #116, #209 ) ;
#211 = PRODUCT_DEFINITION_FORMATION_WITH_SPECIFIED_SOURCE ( 'LIBOVOLNÝ', '', #240, .NOT_KNOWN. ) ;
#212 = DIRECTION ( 'NONE',  ( -1.000000000000000000, 0.000000000000000000, 0.000000000000000000 ) ) ;
#213 = DIRECTION ( 'NONE',  ( -0.000000000000000000, -0.000000000000000000, -1.000000000000000000 ) ) ;
#214 = ADVANCED_FACE ( 'NONE', ( #113 ), #261, .T. ) ;
#215 = AXIS2_PLACEMENT_3D ( 'NONE', #288, #158, #57 ) ;
#216 =( GEOMETRIC_REPRESENTATION_CONTEXT ( 3 ) GLOBAL_UNCERTAINTY_ASSIGNED_CONTEXT ( ( #263 ) ) GLOBAL_UNIT_ASSIGNED_CONTEXT ( ( #110, #80, #279 ) ) REPRESENTATION_CONTEXT ( 'NONE', 'WORKASPACE' ) );
#217 = CC_DESIGN_PERSON_AND_ORGANIZATION_ASSIGNMENT ( #253, #299, ( #143 ) ) ;
#218 = MANIFOLD_SOLID_BREP ( 'Zaoblit1', #7 ) ;
#219 = EDGE_LOOP ( 'NONE', ( #167, #220 ) ) ;
#220 = ORIENTED_EDGE ( 'NONE', *, *, #53, .F. ) ;
#221 = EDGE_LOOP ( 'NONE', ( #75, #239, #123, #67 ) ) ;
#222 = DIRECTION ( 'NONE',  ( -0.000000000000000000, -0.000000000000000000, -1.000000000000000000 ) ) ;
#223 = ORIENTED_EDGE ( 'NONE', *, *, #304, .T. ) ;
#224 = DIRECTION ( 'NONE',  ( 0.000000000000000000, 0.000000000000000000, 1.000000000000000000 ) ) ;
#225 = APPROVAL_DATE_TIME ( #199, #119 ) ;
#226 = CARTESIAN_POINT ( 'NONE',  ( -4.000000000000000000, 0.000000000000000000, 3.000000000000000000 ) ) ;
#227 = FACE_OUTER_BOUND ( 'NONE', #221, .T. ) ;
#228 = APPROVAL_STATUS ( 'not_yet_approved' ) ;
#229 = CARTESIAN_POINT ( 'NONE',  ( 0.000000000000000000, 0.000000000000000000, 3.000000000000000000 ) ) ;
#230 = ADVANCED_FACE ( 'NONE', ( #188 ), #162, .T. ) ;
#231 = DIRECTION ( 'NONE',  ( 1.000000000000000000, 0.000000000000000000, 0.000000000000000000 ) ) ;
#232 = DIRECTION ( 'NONE',  ( 0.000000000000000000, -1.000000000000000000, 0.000000000000000000 ) ) ;
#233 = CARTESIAN_POINT ( 'NONE',  ( 0.000000000000000000, 0.000000000000000000, 803.0000000000000000 ) ) ;
#234 = AXIS2_PLACEMENT_3D ( 'NONE', #235, #19, #305 ) ;
#235 = CARTESIAN_POINT ( 'NONE',  ( 0.000000000000000000, 0.000000000000000000, 3.000000000000000000 ) ) ;
#236 = CIRCLE ( 'NONE', #99, 2.000000000000000000 ) ;
#237 = ADVANCED_FACE ( 'NONE', ( #278 ), #257, .T. ) ;
#238 = ORIENTED_EDGE ( 'NONE', *, *, #174, .F. ) ;
#239 = ORIENTED_EDGE ( 'NONE', *, *, #174, .T. ) ;
#240 = PRODUCT ( 'abc0', 'abc0', '', ( #87 ) ) ;
#241 = CIRCLE ( 'NONE', #215, 4.000000000000000000 ) ;
#242 = EDGE_LOOP ( 'NONE', ( #25, #125, #191, #171 ) ) ;
#243 = EDGE_LOOP ( 'NONE', ( #173, #72, #223, #147 ) ) ;
#244 = ORIENTED_EDGE ( 'NONE', *, *, #166, .F. ) ;
#245 = LINE ( 'NONE', #250, #13 ) ;
#246 = ORIENTED_EDGE ( 'NONE', *, *, #187, .F. ) ;
#247 = AXIS2_PLACEMENT_3D ( 'NONE', #30, #252, #207 ) ;
#248 = CIRCLE ( 'NONE', #69, 0.2000000000000000944 ) ;
#249 = CALENDAR_DATE ( 2022, 20, 6 ) ;
#250 = CARTESIAN_POINT ( 'NONE',  ( 4.000000000000000000, 4.898587196589412829E-16, 3.000000000000000000 ) ) ;
#251 = PERSON_AND_ORGANIZATION ( #139, #106 ) ;
#252 = DIRECTION ( 'NONE',  ( -0.000000000000000000, -0.000000000000000000, -1.000000000000000000 ) ) ;
#253 = PERSON_AND_ORGANIZATION ( #139, #106 ) ;
#254 = CARTESIAN_POINT ( 'NONE',  ( 2.000000000000000000, 2.449293598294706414E-16, 803.0000000000000000 ) ) ;
#255 = CARTESIAN_POINT ( 'NONE',  ( 0.000000000000000000, 0.000000000000000000, 3.000000000000000000 ) ) ;
#256 = CARTESIAN_POINT ( 'NONE',  ( 0.000000000000000000, 0.000000000000000000, 0.000000000000000000 ) ) ;
#257 = CYLINDRICAL_SURFACE ( 'NONE', #29, 4.000000000000000000 ) ;
#258 = PRODUCT_RELATED_PRODUCT_CATEGORY ( 'detail', '', ( #240 ) ) ;
#259 = PERSON_AND_ORGANIZATION ( #139, #106 ) ;
#260 = CARTESIAN_POINT ( 'NONE',  ( -2.200000000000000178, 2.694222958124177006E-16, 2.999999999999990674 ) ) ;
#261 = CYLINDRICAL_SURFACE ( 'NONE', #210, 2.000000000000000000 ) ;
#262 = APPROVAL ( #295, 'NEURÈENÝ' ) ;
#263 = UNCERTAINTY_MEASURE_WITH_UNIT (LENGTH_MEASURE( 1.000000000000000082E-05 ), #110, 'distance_accuracy_value', 'NONE');
#264 = APPLICATION_CONTEXT ( 'configuration controlled 3d designs of mechanical parts and assemblies' ) ;
#265 = VERTEX_POINT ( 'NONE', #260 ) ;
#266 = CC_DESIGN_DATE_AND_TIME_ASSIGNMENT ( #271, #40, ( #97 ) ) ;
#267 = DIRECTION ( 'NONE',  ( 1.000000000000000000, 0.000000000000000000, 0.000000000000000000 ) ) ;
#268 = CARTESIAN_POINT ( 'NONE',  ( -4.000000000000000000, 0.000000000000000000, 3.000000000000000000 ) ) ;
#269 = PERSON_AND_ORGANIZATION ( #139, #106 ) ;
#270 = DIRECTION ( 'NONE',  ( 1.000000000000000000, 0.000000000000000000, 0.000000000000000000 ) ) ;
#271 = DATE_AND_TIME ( #90, #302 ) ;
#272 = EDGE_CURVE ( 'NONE', #265, #96, #291, .T. ) ;
#273 = CARTESIAN_POINT ( 'NONE',  ( -2.000000000000000000, 0.000000000000000000, 803.0000000000000000 ) ) ;
#274 = APPROVAL_DATE_TIME ( #134, #262 ) ;
#275 = AXIS2_PLACEMENT_3D ( 'NONE', #105, #222, #287 ) ;
#276 = FACE_OUTER_BOUND ( 'NONE', #5, .T. ) ;
#277 = APPROVAL_ROLE ( '' ) ;
#278 = FACE_OUTER_BOUND ( 'NONE', #73, .T. ) ;
#279 =( NAMED_UNIT ( * ) SI_UNIT ( $, .STERADIAN. ) SOLID_ANGLE_UNIT ( ) );
#280 = AXIS2_PLACEMENT_3D ( 'NONE', #178, #10, #270 ) ;
#281 = AXIS2_PLACEMENT_3D ( 'NONE', #189, #41, #45 ) ;
#282 = ORIENTED_EDGE ( 'NONE', *, *, #109, .T. ) ;
#283 = ORIENTED_EDGE ( 'NONE', *, *, #272, .F. ) ;
#284 = ORIENTED_EDGE ( 'NONE', *, *, #39, .T. ) ;
#285 = DIRECTION ( 'NONE',  ( 0.000000000000000000, 0.000000000000000000, 1.000000000000000000 ) ) ;
#286 = ADVANCED_FACE ( 'NONE', ( #92 ), #164, .F. ) ;
#287 = DIRECTION ( 'NONE',  ( -1.000000000000000000, 0.000000000000000000, 0.000000000000000000 ) ) ;
#288 = CARTESIAN_POINT ( 'NONE',  ( 0.000000000000000000, 0.000000000000000000, 0.000000000000000000 ) ) ;
#289 = TOROIDAL_SURFACE ( 'NONE', #200, 2.200000000000000178, 0.2000000000000000111 ) ;
#290 = DATE_AND_TIME ( #60, #179 ) ;
#291 = CIRCLE ( 'NONE', #234, 2.200000000000000178 ) ;
#292 = CIRCLE ( 'NONE', #165, 2.000000000000000000 ) ;
#293 = LOCAL_TIME ( 12, 8, 50.00000000000000000, #138 ) ;
#294 = DIRECTION ( 'NONE',  ( 1.000000000000000000, 0.000000000000000000, -0.000000000000000000 ) ) ;
#295 = APPROVAL_STATUS ( 'not_yet_approved' ) ;
#296 = DIRECTION ( 'NONE',  ( 0.000000000000000000, 0.000000000000000000, 1.000000000000000000 ) ) ;
#297 = COORDINATED_UNIVERSAL_TIME_OFFSET ( 1, 0, .AHEAD. ) ;
#298 = DIRECTION ( 'NONE',  ( -0.000000000000000000, -0.000000000000000000, -1.000000000000000000 ) ) ;
#299 = PERSON_AND_ORGANIZATION_ROLE ( 'classification_officer' ) ;
#300 = EDGE_CURVE ( 'NONE', #71, #96, #93, .T. ) ;
#301 = CARTESIAN_POINT ( 'NONE',  ( 0.000000000000000000, 0.000000000000000000, 803.0000000000000000 ) ) ;
#302 = LOCAL_TIME ( 12, 8, 50.00000000000000000, #186 ) ;
#303 = PERSON_AND_ORGANIZATION_ROLE ( 'creator' ) ;
#304 = EDGE_CURVE ( 'NONE', #71, #151, #292, .T. ) ;
#305 = DIRECTION ( 'NONE',  ( 1.000000000000000000, 0.000000000000000000, 0.000000000000000000 ) ) ;
#306 = EDGE_CURVE ( 'NONE', #27, #71, #163, .T. ) ;
#307 = EDGE_CURVE ( 'NONE', #146, #149, #201, .T. ) ;
ENDSEC;
END-ISO-10303-21;
