ISO-10303-21;
HEADER;
FILE_DESCRIPTION (( 'STEP AP203' ),
    '1' );
FILE_NAME ('572e.STEP',
    '2022-06-20T10:01:39',
    ( '' ),
    ( '' ),
    'SwSTEP 2.0',
    'SolidWorks 2019',
    '' );
FILE_SCHEMA (( 'CONFIG_CONTROL_DESIGN' ));
ENDSEC;

DATA;
#1 = DESIGN_CONTEXT ( 'detailed design', #24, 'design' ) ;
#2 = DIRECTION ( 'NONE',  ( 1.000000000000000000, 0.000000000000000000, 0.000000000000000000 ) ) ;
#3 = ADVANCED_FACE ( 'NONE', ( #236 ), #32, .T. ) ;
#4 = ORIENTED_EDGE ( 'NONE', *, *, #15, .F. ) ;
#5 = CIRCLE ( 'NONE', #136, 2.799999999999999822 ) ;
#6 = CC_DESIGN_DATE_AND_TIME_ASSIGNMENT ( #248, #21, ( #66 ) ) ;
#7 = CIRCLE ( 'NONE', #187, 2.600000000000000089 ) ;
#8 = FACE_OUTER_BOUND ( 'NONE', #282, .T. ) ;
#9 = CALENDAR_DATE ( 2022, 20, 6 ) ;
#10 = EDGE_CURVE ( 'NONE', #214, #95, #39, .T. ) ;
#11 = DIRECTION ( 'NONE',  ( -0.000000000000000000, -0.000000000000000000, -1.000000000000000000 ) ) ;
#12 = DIRECTION ( 'NONE',  ( 1.000000000000000000, 0.000000000000000000, 0.000000000000000000 ) ) ;
#13 = FACE_OUTER_BOUND ( 'NONE', #52, .T. ) ;
#14 = PRODUCT ( '572e', '572e', '', ( #172 ) ) ;
#15 = EDGE_CURVE ( 'NONE', #227, #165, #94, .T. ) ;
#16 = DIRECTION ( 'NONE',  ( 1.000000000000000000, 0.000000000000000000, 0.000000000000000000 ) ) ;
#17 = DIRECTION ( 'NONE',  ( 1.000000000000000000, 0.000000000000000000, 0.000000000000000000 ) ) ;
#18 = SHAPE_DEFINITION_REPRESENTATION ( #149, #250 ) ;
#19 = DIRECTION ( 'NONE',  ( 0.000000000000000000, 0.000000000000000000, 1.000000000000000000 ) ) ;
#20 = CC_DESIGN_DATE_AND_TIME_ASSIGNMENT ( #79, #169, ( #73 ) ) ;
#21 = DATE_TIME_ROLE ( 'classification_date' ) ;
#22 = DIRECTION ( 'NONE',  ( 1.000000000000000000, 0.000000000000000000, 0.000000000000000000 ) ) ;
#23 = AXIS2_PLACEMENT_3D ( 'NONE', #276, #124, #17 ) ;
#24 = APPLICATION_CONTEXT ( 'configuration controlled 3d designs of mechanical parts and assemblies' ) ;
#25 = CARTESIAN_POINT ( 'NONE',  ( 0.000000000000000000, 0.000000000000000000, 3.199999999999980638 ) ) ;
#26 = ORIENTED_EDGE ( 'NONE', *, *, #281, .F. ) ;
#27 = ORIENTED_EDGE ( 'NONE', *, *, #192, .T. ) ;
#28 = TOROIDAL_SURFACE ( 'NONE', #107, 2.799999999999999822, 0.2000000000000000111 ) ;
#29 = ORIENTED_EDGE ( 'NONE', *, *, #205, .T. ) ;
#30 = CC_DESIGN_PERSON_AND_ORGANIZATION_ASSIGNMENT ( #297, #86, ( #73 ) ) ;
#31 = MANIFOLD_SOLID_BREP ( 'Zaoblit1', #65 ) ;
#32 = PLANE ( 'NONE',  #234 ) ;
#33 = CARTESIAN_POINT ( 'NONE',  ( 0.000000000000000000, 0.000000000000000000, 403.0000000000000000 ) ) ;
#34 = CC_DESIGN_APPROVAL ( #168, ( #164 ) ) ;
#35 = APPROVAL_STATUS ( 'not_yet_approved' ) ;
#36 = CARTESIAN_POINT ( 'NONE',  ( -2.799999999999999822, 3.429011037612589276E-16, 2.999999999999990674 ) ) ;
#37 = CC_DESIGN_PERSON_AND_ORGANIZATION_ASSIGNMENT ( #177, #87, ( #164 ) ) ;
#38 = CYLINDRICAL_SURFACE ( 'NONE', #279, 2.600000000000000089 ) ;
#39 = CIRCLE ( 'NONE', #194, 0.2000000000000000944 ) ;
#40 =( NAMED_UNIT ( * ) PLANE_ANGLE_UNIT ( ) SI_UNIT ( $, .RADIAN. ) );
#41 = LOCAL_TIME ( 12, 1, 39.00000000000000000, #238 ) ;
#42 = DIRECTION ( 'NONE',  ( 0.000000000000000000, 0.000000000000000000, 1.000000000000000000 ) ) ;
#43 = CARTESIAN_POINT ( 'NONE',  ( 0.000000000000000000, 0.000000000000000000, 3.000000000000000000 ) ) ;
#44 = PERSON_AND_ORGANIZATION ( #156, #101 ) ;
#45 = EDGE_CURVE ( 'NONE', #56, #290, #230, .T. ) ;
#46 = EDGE_LOOP ( 'NONE', ( #159, #134, #80, #235 ) ) ;
#47 = DIRECTION ( 'NONE',  ( 1.000000000000000000, 0.000000000000000000, 0.000000000000000000 ) ) ;
#48 = DIRECTION ( 'NONE',  ( -0.000000000000000000, -0.000000000000000000, -1.000000000000000000 ) ) ;
#49 = PERSON_AND_ORGANIZATION ( #156, #101 ) ;
#50 = CARTESIAN_POINT ( 'NONE',  ( 0.000000000000000000, 0.000000000000000000, 3.000000000000000000 ) ) ;
#51 = ADVANCED_FACE ( 'NONE', ( #219 ), #146, .T. ) ;
#52 = EDGE_LOOP ( 'NONE', ( #99, #212, #26, #195 ) ) ;
#53 = CARTESIAN_POINT ( 'NONE',  ( 0.000000000000000000, 0.000000000000000000, 3.199999999999980638 ) ) ;
#54 = AXIS2_PLACEMENT_3D ( 'NONE', #43, #110, #158 ) ;
#55 = LOCAL_TIME ( 12, 1, 39.00000000000000000, #256 ) ;
#56 = VERTEX_POINT ( 'NONE', #274 ) ;
#57 = PERSON_AND_ORGANIZATION ( #156, #101 ) ;
#58 = DIRECTION ( 'NONE',  ( 0.000000000000000000, 0.000000000000000000, 1.000000000000000000 ) ) ;
#59 = ADVANCED_FACE ( 'NONE', ( #120 ), #38, .T. ) ;
#60 = AXIS2_PLACEMENT_3D ( 'NONE', #97, #74, #237 ) ;
#61 = APPROVAL_PERSON_ORGANIZATION ( #225, #247, #305 ) ;
#62 = DIRECTION ( 'NONE',  ( -0.000000000000000000, -0.000000000000000000, -1.000000000000000000 ) ) ;
#63 = CARTESIAN_POINT ( 'NONE',  ( -2.799999999999999822, 3.429011037612588783E-16, 3.199999999999980638 ) ) ;
#64 = VERTEX_POINT ( 'NONE', #36 ) ;
#65 = CLOSED_SHELL ( 'NONE', ( #289, #59, #179, #262, #152, #81, #51, #3, #277 ) ) ;
#66 = SECURITY_CLASSIFICATION ( '', '', #299 ) ;
#67 = PERSON_AND_ORGANIZATION_ROLE ( 'classification_officer' ) ;
#68 = CARTESIAN_POINT ( 'NONE',  ( 2.799999999999999822, 0.000000000000000000, 2.999999999999990674 ) ) ;
#69 = EDGE_LOOP ( 'NONE', ( #89, #116 ) ) ;
#70 = DIRECTION ( 'NONE',  ( -0.000000000000000000, -0.000000000000000000, -1.000000000000000000 ) ) ;
#71 = EDGE_CURVE ( 'NONE', #64, #95, #5, .T. ) ;
#72 = DIRECTION ( 'NONE',  ( 1.000000000000000000, 0.000000000000000000, 0.000000000000000000 ) ) ;
#73 = PRODUCT_DEFINITION ( 'NEZNÁMÝ', '', #164, #1 ) ;
#74 = DIRECTION ( 'NONE',  ( -0.000000000000000000, -0.000000000000000000, -1.000000000000000000 ) ) ;
#75 = ORIENTED_EDGE ( 'NONE', *, *, #220, .T. ) ;
#76 = DIRECTION ( 'NONE',  ( -0.000000000000000000, -0.000000000000000000, -1.000000000000000000 ) ) ;
#77 = ORIENTED_EDGE ( 'NONE', *, *, #281, .T. ) ;
#78 = CC_DESIGN_APPROVAL ( #247, ( #66 ) ) ;
#79 = DATE_AND_TIME ( #127, #138 ) ;
#80 = ORIENTED_EDGE ( 'NONE', *, *, #198, .T. ) ;
#81 = ADVANCED_FACE ( 'NONE', ( #242 ), #132, .F. ) ;
#82 = PERSON_AND_ORGANIZATION_ROLE ( 'design_owner' ) ;
#83 = VECTOR ( 'NONE', #76, 1000.000000000000000 ) ;
#84 = CARTESIAN_POINT ( 'NONE',  ( 0.000000000000000000, 0.000000000000000000, 3.199999999999980638 ) ) ;
#85 = APPLICATION_PROTOCOL_DEFINITION ( 'international standard', 'config_control_design', 1994, #24 ) ;
#86 = PERSON_AND_ORGANIZATION_ROLE ( 'creator' ) ;
#87 = PERSON_AND_ORGANIZATION_ROLE ( 'creator' ) ;
#88 = CALENDAR_DATE ( 2022, 20, 6 ) ;
#89 = ORIENTED_EDGE ( 'NONE', *, *, #102, .T. ) ;
#90 = AXIS2_PLACEMENT_3D ( 'NONE', #231, #303, #47 ) ;
#91 = DIRECTION ( 'NONE',  ( -1.000000000000000000, 0.000000000000000000, 0.000000000000000000 ) ) ;
#92 = LOCAL_TIME ( 12, 1, 39.00000000000000000, #216 ) ;
#93 = ORIENTED_EDGE ( 'NONE', *, *, #233, .T. ) ;
#94 = CIRCLE ( 'NONE', #23, 5.000000000000000000 ) ;
#95 = VERTEX_POINT ( 'NONE', #68 ) ;
#96 = CC_DESIGN_SECURITY_CLASSIFICATION ( #66, ( #164 ) ) ;
#97 = CARTESIAN_POINT ( 'NONE',  ( 0.000000000000000000, 0.000000000000000000, 3.000000000000000000 ) ) ;
#98 = EDGE_LOOP ( 'NONE', ( #4, #103, #265, #178 ) ) ;
#99 = ORIENTED_EDGE ( 'NONE', *, *, #205, .F. ) ;
#100 = AXIS2_PLACEMENT_3D ( 'NONE', #304, #70, #91 ) ;
#101 = ORGANIZATION ( 'NEURÈENÝ', 'NEURÈENÝ', '' ) ;
#102 = EDGE_CURVE ( 'NONE', #165, #227, #215, .T. ) ;
#103 = ORIENTED_EDGE ( 'NONE', *, *, #292, .T. ) ;
#104 = DATE_AND_TIME ( #9, #92 ) ;
#105 = DIRECTION ( 'NONE',  ( 1.000000000000000000, 0.000000000000000000, 0.000000000000000000 ) ) ;
#106 = DIRECTION ( 'NONE',  ( 1.000000000000000000, 0.000000000000000000, 0.000000000000000000 ) ) ;
#107 = AXIS2_PLACEMENT_3D ( 'NONE', #84, #121, #16 ) ;
#108 = CALENDAR_DATE ( 2022, 20, 6 ) ;
#109 = FACE_OUTER_BOUND ( 'NONE', #69, .T. ) ;
#110 = DIRECTION ( 'NONE',  ( 0.000000000000000000, 0.000000000000000000, 1.000000000000000000 ) ) ;
#111 = CC_DESIGN_PERSON_AND_ORGANIZATION_ASSIGNMENT ( #44, #67, ( #66 ) ) ;
#112 = CARTESIAN_POINT ( 'NONE',  ( 0.000000000000000000, 0.000000000000000000, 403.0000000000000000 ) ) ;
#113 = ORIENTED_EDGE ( 'NONE', *, *, #267, .T. ) ;
#114 = DIRECTION ( 'NONE',  ( 0.000000000000000000, -1.000000000000000000, 0.000000000000000000 ) ) ;
#115 = CARTESIAN_POINT ( 'NONE',  ( 5.000000000000000000, 6.123233995736766282E-16, 3.000000000000000000 ) ) ;
#116 = ORIENTED_EDGE ( 'NONE', *, *, #15, .T. ) ;
#117 = DIRECTION ( 'NONE',  ( 0.000000000000000000, 0.000000000000000000, 1.000000000000000000 ) ) ;
#118 = AXIS2_PLACEMENT_3D ( 'NONE', #25, #209, #2 ) ;
#119 = APPROVAL_ROLE ( '' ) ;
#120 = FACE_OUTER_BOUND ( 'NONE', #206, .T. ) ;
#121 = DIRECTION ( 'NONE',  ( 0.000000000000000000, 0.000000000000000000, 1.000000000000000000 ) ) ;
#122 = EDGE_CURVE ( 'NONE', #290, #56, #171, .T. ) ;
#123 = CARTESIAN_POINT ( 'NONE',  ( 5.000000000000000000, 6.123233995736766282E-16, 3.000000000000000000 ) ) ;
#124 = DIRECTION ( 'NONE',  ( 0.000000000000000000, 0.000000000000000000, 1.000000000000000000 ) ) ;
#125 = AXIS2_PLACEMENT_3D ( 'NONE', #50, #306, #180 ) ;
#126 = APPROVAL_ROLE ( '' ) ;
#127 = CALENDAR_DATE ( 2022, 20, 6 ) ;
#128 = EDGE_CURVE ( 'NONE', #139, #64, #246, .T. ) ;
#129 = UNCERTAINTY_MEASURE_WITH_UNIT (LENGTH_MEASURE( 1.000000000000000082E-05 ), #218, 'distance_accuracy_value', 'NONE');
#130 = CARTESIAN_POINT ( 'NONE',  ( -2.600000000000000089, 0.000000000000000000, 3.199999999999980638 ) ) ;
#131 = ORIENTED_EDGE ( 'NONE', *, *, #144, .T. ) ;
#132 = PLANE ( 'NONE',  #181 ) ;
#133 = CARTESIAN_POINT ( 'NONE',  ( 0.000000000000000000, 0.000000000000000000, 3.199999999999980638 ) ) ;
#134 = ORIENTED_EDGE ( 'NONE', *, *, #102, .F. ) ;
#135 = APPROVAL ( #145, 'NEURÈENÝ' ) ;
#136 = AXIS2_PLACEMENT_3D ( 'NONE', #270, #11, #105 ) ;
#137 = ORIENTED_EDGE ( 'NONE', *, *, #267, .F. ) ;
#138 = LOCAL_TIME ( 12, 1, 39.00000000000000000, #174 ) ;
#139 = VERTEX_POINT ( 'NONE', #130 ) ;
#140 = CARTESIAN_POINT ( 'NONE',  ( 2.600000000000000089, 3.184081677783118191E-16, 403.0000000000000000 ) ) ;
#141 = ORIENTED_EDGE ( 'NONE', *, *, #144, .F. ) ;
#142 = DIRECTION ( 'NONE',  ( 1.000000000000000000, 0.000000000000000000, -0.000000000000000000 ) ) ;
#143 = VECTOR ( 'NONE', #183, 1000.000000000000000 ) ;
#144 = EDGE_CURVE ( 'NONE', #261, #307, #163, .T. ) ;
#145 = APPROVAL_STATUS ( 'not_yet_approved' ) ;
#146 = CYLINDRICAL_SURFACE ( 'NONE', #264, 2.600000000000000089 ) ;
#147 = VECTOR ( 'NONE', #48, 1000.000000000000000 ) ;
#148 = LOCAL_TIME ( 12, 1, 39.00000000000000000, #223 ) ;
#149 = PRODUCT_DEFINITION_SHAPE ( 'NONE', 'NONE',  #73 ) ;
#150 = DIRECTION ( 'NONE',  ( -0.000000000000000000, -0.000000000000000000, -1.000000000000000000 ) ) ;
#151 = DIRECTION ( 'NONE',  ( -0.000000000000000000, -0.000000000000000000, -1.000000000000000000 ) ) ;
#152 = ADVANCED_FACE ( 'NONE', ( #224, #109 ), #207, .T. ) ;
#153 = DIRECTION ( 'NONE',  ( -1.000000000000000000, 0.000000000000000000, 0.000000000000000000 ) ) ;
#154 = CALENDAR_DATE ( 2022, 20, 6 ) ;
#155 = CARTESIAN_POINT ( 'NONE',  ( 2.600000000000000089, 3.184081677783118191E-16, 403.0000000000000000 ) ) ;
#156 = PERSON ( 'NEURÈENÝ', 'NEURÈENÝ', 'NEURÈENÝ', ('NEURÈENÝ'), ('NEURÈENÝ'), ('NEURÈENÝ') ) ;
#157 = APPROVAL_DATE_TIME ( #275, #247 ) ;
#158 = DIRECTION ( 'NONE',  ( 1.000000000000000000, 0.000000000000000000, 0.000000000000000000 ) ) ;
#159 = ORIENTED_EDGE ( 'NONE', *, *, #292, .F. ) ;
#160 = LINE ( 'NONE', #259, #147 ) ;
#161 = PERSON_AND_ORGANIZATION_ROLE ( 'design_supplier' ) ;
#162 = LINE ( 'NONE', #155, #143 ) ;
#163 = CIRCLE ( 'NONE', #284, 2.600000000000000089 ) ;
#164 = PRODUCT_DEFINITION_FORMATION_WITH_SPECIFIED_SOURCE ( 'LIBOVOLNÝ', '', #14, .NOT_KNOWN. ) ;
#165 = VERTEX_POINT ( 'NONE', #204 ) ;
#166 = ORIENTED_EDGE ( 'NONE', *, *, #122, .F. ) ;
#167 = DIRECTION ( 'NONE',  ( 1.000000000000000000, 0.000000000000000000, 0.000000000000000000 ) ) ;
#168 = APPROVAL ( #35, 'NEURÈENÝ' ) ;
#169 = DATE_TIME_ROLE ( 'creation_date' ) ;
#170 = ORIENTED_EDGE ( 'NONE', *, *, #45, .F. ) ;
#171 = CIRCLE ( 'NONE', #90, 5.000000000000000000 ) ;
#172 = MECHANICAL_CONTEXT ( 'NONE', #301, 'mechanical' ) ;
#173 = APPLICATION_PROTOCOL_DEFINITION ( 'international standard', 'config_control_design', 1994, #301 ) ;
#174 = COORDINATED_UNIVERSAL_TIME_OFFSET ( 1, 0, .AHEAD. ) ;
#175 = CARTESIAN_POINT ( 'NONE',  ( 0.000000000000000000, 0.000000000000000000, 403.0000000000000000 ) ) ;
#176 = CIRCLE ( 'NONE', #300, 2.600000000000000089 ) ;
#177 = PERSON_AND_ORGANIZATION ( #156, #101 ) ;
#178 = ORIENTED_EDGE ( 'NONE', *, *, #198, .F. ) ;
#179 = ADVANCED_FACE ( 'NONE', ( #228 ), #186, .T. ) ;
#180 = DIRECTION ( 'NONE',  ( 1.000000000000000000, 0.000000000000000000, -0.000000000000000000 ) ) ;
#181 = AXIS2_PLACEMENT_3D ( 'NONE', #251, #229, #185 ) ;
#182 = TOROIDAL_SURFACE ( 'NONE', #118, 2.799999999999999822, 0.2000000000000000111 ) ;
#183 = DIRECTION ( 'NONE',  ( -0.000000000000000000, -0.000000000000000000, -1.000000000000000000 ) ) ;
#184 = ORIENTED_EDGE ( 'NONE', *, *, #71, .F. ) ;
#185 = DIRECTION ( 'NONE',  ( 1.000000000000000000, 0.000000000000000000, -0.000000000000000000 ) ) ;
#186 = CYLINDRICAL_SURFACE ( 'NONE', #100, 5.000000000000000000 ) ;
#187 = AXIS2_PLACEMENT_3D ( 'NONE', #133, #283, #72 ) ;
#188 = AXIS2_PLACEMENT_3D ( 'NONE', #53, #117, #167 ) ;
#189 = LINE ( 'NONE', #286, #83 ) ;
#190 = APPROVAL_PERSON_ORGANIZATION ( #272, #135, #126 ) ;
#191 = ORIENTED_EDGE ( 'NONE', *, *, #192, .F. ) ;
#192 = EDGE_CURVE ( 'NONE', #261, #214, #162, .T. ) ;
#193 = CARTESIAN_POINT ( 'NONE',  ( 0.000000000000000000, 0.000000000000000000, 403.0000000000000000 ) ) ;
#194 = AXIS2_PLACEMENT_3D ( 'NONE', #239, #114, #222 ) ;
#195 = ORIENTED_EDGE ( 'NONE', *, *, #10, .F. ) ;
#196 = CARTESIAN_POINT ( 'NONE',  ( 0.000000000000000000, 0.000000000000000000, 3.000000000000000000 ) ) ;
#197 = CC_DESIGN_APPROVAL ( #135, ( #73 ) ) ;
#198 = EDGE_CURVE ( 'NONE', #165, #290, #160, .T. ) ;
#199 = APPROVAL_DATE_TIME ( #273, #135 ) ;
#200 = CARTESIAN_POINT ( 'NONE',  ( 0.000000000000000000, 0.000000000000000000, 0.000000000000000000 ) ) ;
#201 = CARTESIAN_POINT ( 'NONE',  ( 0.000000000000000000, 0.000000000000000000, 0.000000000000000000 ) ) ;
#202 = AXIS2_PLACEMENT_3D ( 'NONE', #63, #226, #254 ) ;
#203 =( GEOMETRIC_REPRESENTATION_CONTEXT ( 3 ) GLOBAL_UNCERTAINTY_ASSIGNED_CONTEXT ( ( #129 ) ) GLOBAL_UNIT_ASSIGNED_CONTEXT ( ( #218, #40, #271 ) ) REPRESENTATION_CONTEXT ( 'NONE', 'WORKASPACE' ) );
#204 = CARTESIAN_POINT ( 'NONE',  ( -5.000000000000000000, 0.000000000000000000, 3.000000000000000000 ) ) ;
#205 = EDGE_CURVE ( 'NONE', #139, #214, #7, .T. ) ;
#206 = EDGE_LOOP ( 'NONE', ( #141, #27, #113, #210 ) ) ;
#207 = PLANE ( 'NONE',  #125 ) ;
#208 = EDGE_LOOP ( 'NONE', ( #75, #131 ) ) ;
#209 = DIRECTION ( 'NONE',  ( 0.000000000000000000, 0.000000000000000000, 1.000000000000000000 ) ) ;
#210 = ORIENTED_EDGE ( 'NONE', *, *, #233, .F. ) ;
#211 = FACE_OUTER_BOUND ( 'NONE', #46, .T. ) ;
#212 = ORIENTED_EDGE ( 'NONE', *, *, #128, .T. ) ;
#213 = CC_DESIGN_PERSON_AND_ORGANIZATION_ASSIGNMENT ( #49, #161, ( #164 ) ) ;
#214 = VERTEX_POINT ( 'NONE', #249 ) ;
#215 = CIRCLE ( 'NONE', #54, 5.000000000000000000 ) ;
#216 = COORDINATED_UNIVERSAL_TIME_OFFSET ( 1, 0, .AHEAD. ) ;
#217 = CC_DESIGN_PERSON_AND_ORGANIZATION_ASSIGNMENT ( #295, #82, ( #14 ) ) ;
#218 =( LENGTH_UNIT ( ) NAMED_UNIT ( * ) SI_UNIT ( .MILLI., .METRE. ) );
#219 = FACE_OUTER_BOUND ( 'NONE', #266, .T. ) ;
#220 = EDGE_CURVE ( 'NONE', #307, #261, #176, .T. ) ;
#221 = LINE ( 'NONE', #123, #302 ) ;
#222 = DIRECTION ( 'NONE',  ( 0.000000000000000000, 0.000000000000000000, -1.000000000000000000 ) ) ;
#223 = COORDINATED_UNIVERSAL_TIME_OFFSET ( 1, 0, .AHEAD. ) ;
#224 = FACE_BOUND ( 'NONE', #257, .T. ) ;
#225 = PERSON_AND_ORGANIZATION ( #156, #101 ) ;
#226 = DIRECTION ( 'NONE',  ( 1.224646799147353207E-16, 1.000000000000000000, -0.000000000000000000 ) ) ;
#227 = VERTEX_POINT ( 'NONE', #115 ) ;
#228 = FACE_OUTER_BOUND ( 'NONE', #98, .T. ) ;
#229 = DIRECTION ( 'NONE',  ( 0.000000000000000000, 0.000000000000000000, 1.000000000000000000 ) ) ;
#230 = CIRCLE ( 'NONE', #269, 5.000000000000000000 ) ;
#231 = CARTESIAN_POINT ( 'NONE',  ( 0.000000000000000000, 0.000000000000000000, 0.000000000000000000 ) ) ;
#232 = CYLINDRICAL_SURFACE ( 'NONE', #60, 5.000000000000000000 ) ;
#233 = EDGE_CURVE ( 'NONE', #307, #139, #189, .T. ) ;
#234 = AXIS2_PLACEMENT_3D ( 'NONE', #33, #58, #142 ) ;
#235 = ORIENTED_EDGE ( 'NONE', *, *, #122, .T. ) ;
#236 = FACE_OUTER_BOUND ( 'NONE', #208, .T. ) ;
#237 = DIRECTION ( 'NONE',  ( -1.000000000000000000, 0.000000000000000000, 0.000000000000000000 ) ) ;
#238 = COORDINATED_UNIVERSAL_TIME_OFFSET ( 1, 0, .AHEAD. ) ;
#239 = CARTESIAN_POINT ( 'NONE',  ( 2.799999999999999822, 0.000000000000000000, 3.199999999999980638 ) ) ;
#240 = AXIS2_PLACEMENT_3D ( 'NONE', #196, #62, #243 ) ;
#241 = PRODUCT_RELATED_PRODUCT_CATEGORY ( 'detail', '', ( #14 ) ) ;
#242 = FACE_OUTER_BOUND ( 'NONE', #287, .T. ) ;
#243 = DIRECTION ( 'NONE',  ( 1.000000000000000000, 0.000000000000000000, 0.000000000000000000 ) ) ;
#244 = CARTESIAN_POINT ( 'NONE',  ( -2.600000000000000089, 0.000000000000000000, 403.0000000000000000 ) ) ;
#245 = DIRECTION ( 'NONE',  ( -0.000000000000000000, -0.000000000000000000, -1.000000000000000000 ) ) ;
#246 = CIRCLE ( 'NONE', #202, 0.2000000000000000944 ) ;
#247 = APPROVAL ( #258, 'NEURÈENÝ' ) ;
#248 = DATE_AND_TIME ( #88, #55 ) ;
#249 = CARTESIAN_POINT ( 'NONE',  ( 2.600000000000000089, 3.184081677783118191E-16, 3.199999999999980638 ) ) ;
#250 = ADVANCED_BREP_SHAPE_REPRESENTATION ( '572e', ( #31, #280 ), #203 ) ;
#251 = CARTESIAN_POINT ( 'NONE',  ( 0.000000000000000000, 0.000000000000000000, 0.000000000000000000 ) ) ;
#252 = ORIENTED_EDGE ( 'NONE', *, *, #71, .T. ) ;
#253 = CIRCLE ( 'NONE', #188, 2.600000000000000089 ) ;
#254 = DIRECTION ( 'NONE',  ( -1.000000000000000000, 1.224646799147353207E-16, 0.000000000000000000 ) ) ;
#255 = ORIENTED_EDGE ( 'NONE', *, *, #128, .F. ) ;
#256 = COORDINATED_UNIVERSAL_TIME_OFFSET ( 1, 0, .AHEAD. ) ;
#257 = EDGE_LOOP ( 'NONE', ( #77, #252 ) ) ;
#258 = APPROVAL_STATUS ( 'not_yet_approved' ) ;
#259 = CARTESIAN_POINT ( 'NONE',  ( -5.000000000000000000, 0.000000000000000000, 3.000000000000000000 ) ) ;
#260 = DIRECTION ( 'NONE',  ( 1.000000000000000000, 0.000000000000000000, 0.000000000000000000 ) ) ;
#261 = VERTEX_POINT ( 'NONE', #140 ) ;
#262 = ADVANCED_FACE ( 'NONE', ( #211 ), #232, .T. ) ;
#263 = DIRECTION ( 'NONE',  ( 0.000000000000000000, 0.000000000000000000, 1.000000000000000000 ) ) ;
#264 = AXIS2_PLACEMENT_3D ( 'NONE', #294, #245, #298 ) ;
#265 = ORIENTED_EDGE ( 'NONE', *, *, #45, .T. ) ;
#266 = EDGE_LOOP ( 'NONE', ( #191, #278, #93, #29 ) ) ;
#267 = EDGE_CURVE ( 'NONE', #214, #139, #253, .T. ) ;
#268 = ORIENTED_EDGE ( 'NONE', *, *, #10, .T. ) ;
#269 = AXIS2_PLACEMENT_3D ( 'NONE', #201, #296, #106 ) ;
#270 = CARTESIAN_POINT ( 'NONE',  ( 0.000000000000000000, 0.000000000000000000, 3.000000000000000000 ) ) ;
#271 =( NAMED_UNIT ( * ) SI_UNIT ( $, .STERADIAN. ) SOLID_ANGLE_UNIT ( ) );
#272 = PERSON_AND_ORGANIZATION ( #156, #101 ) ;
#273 = DATE_AND_TIME ( #108, #41 ) ;
#274 = CARTESIAN_POINT ( 'NONE',  ( 5.000000000000000000, 6.123233995736766282E-16, 0.000000000000000000 ) ) ;
#275 = DATE_AND_TIME ( #154, #148 ) ;
#276 = CARTESIAN_POINT ( 'NONE',  ( 0.000000000000000000, 0.000000000000000000, 3.000000000000000000 ) ) ;
#277 = ADVANCED_FACE ( 'NONE', ( #8 ), #182, .F. ) ;
#278 = ORIENTED_EDGE ( 'NONE', *, *, #220, .F. ) ;
#279 = AXIS2_PLACEMENT_3D ( 'NONE', #175, #151, #153 ) ;
#280 = AXIS2_PLACEMENT_3D ( 'NONE', #200, #42, #12 ) ;
#281 = EDGE_CURVE ( 'NONE', #95, #64, #285, .T. ) ;
#282 = EDGE_LOOP ( 'NONE', ( #255, #137, #268, #184 ) ) ;
#283 = DIRECTION ( 'NONE',  ( 0.000000000000000000, 0.000000000000000000, 1.000000000000000000 ) ) ;
#284 = AXIS2_PLACEMENT_3D ( 'NONE', #112, #19, #22 ) ;
#285 = CIRCLE ( 'NONE', #240, 2.799999999999999822 ) ;
#286 = CARTESIAN_POINT ( 'NONE',  ( -2.600000000000000089, 0.000000000000000000, 403.0000000000000000 ) ) ;
#287 = EDGE_LOOP ( 'NONE', ( #166, #170 ) ) ;
#288 = APPROVAL_PERSON_ORGANIZATION ( #57, #168, #119 ) ;
#289 = ADVANCED_FACE ( 'NONE', ( #13 ), #28, .F. ) ;
#290 = VERTEX_POINT ( 'NONE', #293 ) ;
#291 = APPROVAL_DATE_TIME ( #104, #168 ) ;
#292 = EDGE_CURVE ( 'NONE', #227, #56, #221, .T. ) ;
#293 = CARTESIAN_POINT ( 'NONE',  ( -5.000000000000000000, 0.000000000000000000, 0.000000000000000000 ) ) ;
#294 = CARTESIAN_POINT ( 'NONE',  ( 0.000000000000000000, 0.000000000000000000, 403.0000000000000000 ) ) ;
#295 = PERSON_AND_ORGANIZATION ( #156, #101 ) ;
#296 = DIRECTION ( 'NONE',  ( 0.000000000000000000, 0.000000000000000000, 1.000000000000000000 ) ) ;
#297 = PERSON_AND_ORGANIZATION ( #156, #101 ) ;
#298 = DIRECTION ( 'NONE',  ( -1.000000000000000000, 0.000000000000000000, 0.000000000000000000 ) ) ;
#299 = SECURITY_CLASSIFICATION_LEVEL ( 'unclassified' ) ;
#300 = AXIS2_PLACEMENT_3D ( 'NONE', #193, #263, #260 ) ;
#301 = APPLICATION_CONTEXT ( 'configuration controlled 3d designs of mechanical parts and assemblies' ) ;
#302 = VECTOR ( 'NONE', #150, 1000.000000000000000 ) ;
#303 = DIRECTION ( 'NONE',  ( 0.000000000000000000, 0.000000000000000000, 1.000000000000000000 ) ) ;
#304 = CARTESIAN_POINT ( 'NONE',  ( 0.000000000000000000, 0.000000000000000000, 3.000000000000000000 ) ) ;
#305 = APPROVAL_ROLE ( '' ) ;
#306 = DIRECTION ( 'NONE',  ( 0.000000000000000000, 0.000000000000000000, 1.000000000000000000 ) ) ;
#307 = VERTEX_POINT ( 'NONE', #244 ) ;
ENDSEC;
END-ISO-10303-21;
