ISO-10303-21;
HEADER;
FILE_DESCRIPTION (( 'STEP AP203' ),
    '1' );
FILE_NAME ('51fc.STEP',
    '2022-06-20T09:52:57',
    ( '' ),
    ( '' ),
    'SwSTEP 2.0',
    'SolidWorks 2019',
    '' );
FILE_SCHEMA (( 'CONFIG_CONTROL_DESIGN' ));
ENDSEC;

DATA;
#1 = CIRCLE ( 'NONE', #53, 0.2000000000000000944 ) ;
#2 =( NAMED_UNIT ( * ) SI_UNIT ( $, .STERADIAN. ) SOLID_ANGLE_UNIT ( ) );
#3 = CC_DESIGN_APPROVAL ( #300, ( #75 ) ) ;
#4 = ORIENTED_EDGE ( 'NONE', *, *, #71, .T. ) ;
#5 = CC_DESIGN_PERSON_AND_ORGANIZATION_ASSIGNMENT ( #254, #83, ( #173 ) ) ;
#6 = VERTEX_POINT ( 'NONE', #82 ) ;
#7 = EDGE_CURVE ( 'NONE', #288, #6, #237, .T. ) ;
#8 = DIRECTION ( 'NONE',  ( 0.000000000000000000, -1.000000000000000000, 0.000000000000000000 ) ) ;
#9 = CLOSED_SHELL ( 'NONE', ( #246, #179, #48, #150, #142, #122, #244, #284, #229 ) ) ;
#10 = EDGE_LOOP ( 'NONE', ( #153, #266, #130, #123 ) ) ;
#11 = EDGE_CURVE ( 'NONE', #6, #288, #177, .T. ) ;
#12 = DATE_TIME_ROLE ( 'classification_date' ) ;
#13 = CARTESIAN_POINT ( 'NONE',  ( 0.000000000000000000, 0.000000000000000000, 0.000000000000000000 ) ) ;
#14 = MECHANICAL_CONTEXT ( 'NONE', #275, 'mechanical' ) ;
#15 = DIRECTION ( 'NONE',  ( 1.000000000000000000, 0.000000000000000000, 0.000000000000000000 ) ) ;
#16 = APPROVAL_ROLE ( '' ) ;
#17 = AXIS2_PLACEMENT_3D ( 'NONE', #87, #146, #235 ) ;
#18 = LINE ( 'NONE', #143, #274 ) ;
#19 =( LENGTH_UNIT ( ) NAMED_UNIT ( * ) SI_UNIT ( .MILLI., .METRE. ) );
#20 = CARTESIAN_POINT ( 'NONE',  ( 0.000000000000000000, 0.000000000000000000, 5.200000000000009948 ) ) ;
#21 = AXIS2_PLACEMENT_3D ( 'NONE', #306, #47, #117 ) ;
#22 = CARTESIAN_POINT ( 'NONE',  ( 6.000000000000000888, 7.347880794884120722E-16, 0.000000000000000000 ) ) ;
#23 = EDGE_CURVE ( 'NONE', #222, #286, #262, .T. ) ;
#24 = APPROVAL_PERSON_ORGANIZATION ( #32, #56, #16 ) ;
#25 = ORIENTED_EDGE ( 'NONE', *, *, #101, .F. ) ;
#26 = ORIENTED_EDGE ( 'NONE', *, *, #71, .F. ) ;
#27 = ORIENTED_EDGE ( 'NONE', *, *, #218, .F. ) ;
#28 = AXIS2_PLACEMENT_3D ( 'NONE', #223, #8, #191 ) ;
#29 = EDGE_LOOP ( 'NONE', ( #27, #176, #264, #95 ) ) ;
#30 = ADVANCED_BREP_SHAPE_REPRESENTATION ( '51fc', ( #134, #78 ), #220 ) ;
#31 = FACE_OUTER_BOUND ( 'NONE', #125, .T. ) ;
#32 = PERSON_AND_ORGANIZATION ( #93, #119 ) ;
#33 = DIRECTION ( 'NONE',  ( -0.000000000000000000, -0.000000000000000000, -1.000000000000000000 ) ) ;
#34 = CIRCLE ( 'NONE', #97, 3.500000000000000000 ) ;
#35 = DIRECTION ( 'NONE',  ( 0.000000000000000000, 0.000000000000000000, 1.000000000000000000 ) ) ;
#36 = LOCAL_TIME ( 11, 52, 57.00000000000000000, #227 ) ;
#37 = DIRECTION ( 'NONE',  ( 0.000000000000000000, 0.000000000000000000, 1.000000000000000000 ) ) ;
#38 = APPROVAL_DATE_TIME ( #250, #127 ) ;
#39 = CARTESIAN_POINT ( 'NONE',  ( 3.500000000000000000, 4.286263797015736595E-16, 5.200000000000009948 ) ) ;
#40 = EDGE_CURVE ( 'NONE', #222, #287, #226, .T. ) ;
#41 = CARTESIAN_POINT ( 'NONE',  ( 0.000000000000000000, 0.000000000000000000, 5.200000000000009948 ) ) ;
#42 = PERSON_AND_ORGANIZATION ( #93, #119 ) ;
#43 = CC_DESIGN_APPROVAL ( #127, ( #110 ) ) ;
#44 = CARTESIAN_POINT ( 'NONE',  ( 0.000000000000000000, 0.000000000000000000, 205.0000000000000284 ) ) ;
#45 = CARTESIAN_POINT ( 'NONE',  ( 3.500000000000000000, 4.286263797015736595E-16, 205.0000000000000284 ) ) ;
#46 = FACE_OUTER_BOUND ( 'NONE', #178, .T. ) ;
#47 = DIRECTION ( 'NONE',  ( 0.000000000000000000, 0.000000000000000000, 1.000000000000000000 ) ) ;
#48 = ADVANCED_FACE ( 'NONE', ( #80 ), #203, .T. ) ;
#49 = EDGE_LOOP ( 'NONE', ( #240, #94, #51, #26 ) ) ;
#50 = VERTEX_POINT ( 'NONE', #57 ) ;
#51 = ORIENTED_EDGE ( 'NONE', *, *, #162, .T. ) ;
#52 = VERTEX_POINT ( 'NONE', #39 ) ;
#53 = AXIS2_PLACEMENT_3D ( 'NONE', #182, #107, #209 ) ;
#54 = DIRECTION ( 'NONE',  ( 1.000000000000000000, 0.000000000000000000, 0.000000000000000000 ) ) ;
#55 = APPROVAL_STATUS ( 'not_yet_approved' ) ;
#56 = APPROVAL ( #65, 'NEURÈENÝ' ) ;
#57 = CARTESIAN_POINT ( 'NONE',  ( -3.500000000000000000, 0.000000000000000000, 205.0000000000000284 ) ) ;
#58 = PERSON_AND_ORGANIZATION ( #93, #119 ) ;
#59 = DIRECTION ( 'NONE',  ( -0.000000000000000000, -0.000000000000000000, -1.000000000000000000 ) ) ;
#60 = AXIS2_PLACEMENT_3D ( 'NONE', #283, #215, #171 ) ;
#61 = COORDINATED_UNIVERSAL_TIME_OFFSET ( 1, 0, .AHEAD. ) ;
#62 = CARTESIAN_POINT ( 'NONE',  ( 0.000000000000000000, 0.000000000000000000, 5.000000000000000000 ) ) ;
#63 = DIRECTION ( 'NONE',  ( 0.000000000000000000, 0.000000000000000000, 1.000000000000000000 ) ) ;
#64 = CC_DESIGN_DATE_AND_TIME_ASSIGNMENT ( #295, #12, ( #110 ) ) ;
#65 = APPROVAL_STATUS ( 'not_yet_approved' ) ;
#66 = DIRECTION ( 'NONE',  ( -1.000000000000000000, 0.000000000000000000, 0.000000000000000000 ) ) ;
#67 = AXIS2_PLACEMENT_3D ( 'NONE', #44, #88, #172 ) ;
#68 = CARTESIAN_POINT ( 'NONE',  ( 6.000000000000000888, 7.347880794884120722E-16, 5.000000000000000000 ) ) ;
#69 = EDGE_CURVE ( 'NONE', #301, #50, #89, .T. ) ;
#70 = DIRECTION ( 'NONE',  ( 1.000000000000000000, 0.000000000000000000, 0.000000000000000000 ) ) ;
#71 = EDGE_CURVE ( 'NONE', #50, #243, #247, .T. ) ;
#72 = ORIENTED_EDGE ( 'NONE', *, *, #307, .T. ) ;
#73 = ORIENTED_EDGE ( 'NONE', *, *, #7, .T. ) ;
#74 = CIRCLE ( 'NONE', #251, 6.000000000000000888 ) ;
#75 = PRODUCT_DEFINITION_FORMATION_WITH_SPECIFIED_SOURCE ( 'LIBOVOLNÝ', '', #263, .NOT_KNOWN. ) ;
#76 = ORIENTED_EDGE ( 'NONE', *, *, #167, .F. ) ;
#77 = DIRECTION ( 'NONE',  ( -0.000000000000000000, -0.000000000000000000, -1.000000000000000000 ) ) ;
#78 = AXIS2_PLACEMENT_3D ( 'NONE', #164, #35, #141 ) ;
#79 = EDGE_CURVE ( 'NONE', #243, #6, #1, .T. ) ;
#80 = FACE_OUTER_BOUND ( 'NONE', #29, .T. ) ;
#81 = PERSON_AND_ORGANIZATION ( #93, #119 ) ;
#82 = CARTESIAN_POINT ( 'NONE',  ( -3.700000000000000178, 4.531193156845206201E-16, 5.000000000000005329 ) ) ;
#83 = PERSON_AND_ORGANIZATION_ROLE ( 'creator' ) ;
#84 = CARTESIAN_POINT ( 'NONE',  ( 0.000000000000000000, 0.000000000000000000, 0.000000000000000000 ) ) ;
#85 = DIRECTION ( 'NONE',  ( 1.000000000000000000, 0.000000000000000000, 0.000000000000000000 ) ) ;
#86 = APPROVAL_DATE_TIME ( #108, #56 ) ;
#87 = CARTESIAN_POINT ( 'NONE',  ( 0.000000000000000000, 0.000000000000000000, 205.0000000000000284 ) ) ;
#88 = DIRECTION ( 'NONE',  ( -0.000000000000000000, -0.000000000000000000, -1.000000000000000000 ) ) ;
#89 = CIRCLE ( 'NONE', #198, 3.500000000000000000 ) ;
#90 = DIRECTION ( 'NONE',  ( 0.000000000000000000, 0.000000000000000000, 1.000000000000000000 ) ) ;
#91 = EDGE_CURVE ( 'NONE', #286, #291, #185, .T. ) ;
#92 = AXIS2_PLACEMENT_3D ( 'NONE', #144, #90, #118 ) ;
#93 = PERSON ( 'NEURÈENÝ', 'NEURÈENÝ', 'NEURÈENÝ', ('NEURÈENÝ'), ('NEURÈENÝ'), ('NEURÈENÝ') ) ;
#94 = ORIENTED_EDGE ( 'NONE', *, *, #175, .T. ) ;
#95 = ORIENTED_EDGE ( 'NONE', *, *, #40, .F. ) ;
#96 = CC_DESIGN_DATE_AND_TIME_ASSIGNMENT ( #129, #106, ( #173 ) ) ;
#97 = AXIS2_PLACEMENT_3D ( 'NONE', #41, #63, #180 ) ;
#98 = ORIENTED_EDGE ( 'NONE', *, *, #154, .F. ) ;
#99 = ORIENTED_EDGE ( 'NONE', *, *, #154, .T. ) ;
#100 = DIRECTION ( 'NONE',  ( -0.000000000000000000, -0.000000000000000000, -1.000000000000000000 ) ) ;
#101 = EDGE_CURVE ( 'NONE', #287, #291, #221, .T. ) ;
#102 = DIRECTION ( 'NONE',  ( -0.000000000000000000, -0.000000000000000000, -1.000000000000000000 ) ) ;
#103 = TOROIDAL_SURFACE ( 'NONE', #289, 3.700000000000000178, 0.2000000000000000111 ) ;
#104 = DATE_AND_TIME ( #168, #157 ) ;
#105 = CARTESIAN_POINT ( 'NONE',  ( -6.000000000000000888, 0.000000000000000000, 5.000000000000000000 ) ) ;
#106 = DATE_TIME_ROLE ( 'creation_date' ) ;
#107 = DIRECTION ( 'NONE',  ( 1.224646799147353207E-16, 1.000000000000000000, -0.000000000000000000 ) ) ;
#108 = DATE_AND_TIME ( #187, #204 ) ;
#109 = CYLINDRICAL_SURFACE ( 'NONE', #212, 6.000000000000000888 ) ;
#110 = SECURITY_CLASSIFICATION ( '', '', #208 ) ;
#111 = PERSON_AND_ORGANIZATION ( #93, #119 ) ;
#112 = CYLINDRICAL_SURFACE ( 'NONE', #67, 3.500000000000000000 ) ;
#113 = CALENDAR_DATE ( 2022, 20, 6 ) ;
#114 = DIRECTION ( 'NONE',  ( 0.000000000000000000, 0.000000000000000000, 1.000000000000000000 ) ) ;
#115 = CIRCLE ( 'NONE', #60, 6.000000000000000888 ) ;
#116 = APPROVAL_PERSON_ORGANIZATION ( #58, #127, #299 ) ;
#117 = DIRECTION ( 'NONE',  ( 1.000000000000000000, 0.000000000000000000, 0.000000000000000000 ) ) ;
#118 = DIRECTION ( 'NONE',  ( 1.000000000000000000, 0.000000000000000000, 0.000000000000000000 ) ) ;
#119 = ORGANIZATION ( 'NEURÈENÝ', 'NEURÈENÝ', '' ) ;
#120 = ORIENTED_EDGE ( 'NONE', *, *, #79, .T. ) ;
#121 = EDGE_LOOP ( 'NONE', ( #126, #245, #4, #99 ) ) ;
#122 = ADVANCED_FACE ( 'NONE', ( #183 ), #230, .F. ) ;
#123 = ORIENTED_EDGE ( 'NONE', *, *, #11, .F. ) ;
#124 = AXIS2_PLACEMENT_3D ( 'NONE', #298, #33, #232 ) ;
#125 = EDGE_LOOP ( 'NONE', ( #202, #152, #139, #151 ) ) ;
#126 = ORIENTED_EDGE ( 'NONE', *, *, #175, .F. ) ;
#127 = APPROVAL ( #55, 'NEURÈENÝ' ) ;
#128 = CARTESIAN_POINT ( 'NONE',  ( 0.000000000000000000, 0.000000000000000000, 5.200000000000009948 ) ) ;
#129 = DATE_AND_TIME ( #184, #36 ) ;
#130 = ORIENTED_EDGE ( 'NONE', *, *, #167, .T. ) ;
#131 = AXIS2_PLACEMENT_3D ( 'NONE', #136, #37, #228 ) ;
#132 = APPLICATION_PROTOCOL_DEFINITION ( 'international standard', 'config_control_design', 1994, #275 ) ;
#133 = CARTESIAN_POINT ( 'NONE',  ( 0.000000000000000000, 0.000000000000000000, 5.000000000000000000 ) ) ;
#134 = MANIFOLD_SOLID_BREP ( 'Zaoblit1', #9 ) ;
#135 = COORDINATED_UNIVERSAL_TIME_OFFSET ( 1, 0, .AHEAD. ) ;
#136 = CARTESIAN_POINT ( 'NONE',  ( 0.000000000000000000, 0.000000000000000000, 5.000000000000000000 ) ) ;
#137 = PRODUCT_RELATED_PRODUCT_CATEGORY ( 'detail', '', ( #263 ) ) ;
#138 = PERSON_AND_ORGANIZATION_ROLE ( 'design_owner' ) ;
#139 = ORIENTED_EDGE ( 'NONE', *, *, #40, .T. ) ;
#140 = CIRCLE ( 'NONE', #28, 0.1999999999999996503 ) ;
#141 = DIRECTION ( 'NONE',  ( 1.000000000000000000, 0.000000000000000000, 0.000000000000000000 ) ) ;
#142 = ADVANCED_FACE ( 'NONE', ( #276, #166 ), #211, .T. ) ;
#143 = CARTESIAN_POINT ( 'NONE',  ( 3.500000000000000000, 4.286263797015736595E-16, 205.0000000000000284 ) ) ;
#144 = CARTESIAN_POINT ( 'NONE',  ( 0.000000000000000000, 0.000000000000000000, 205.0000000000000284 ) ) ;
#145 = AXIS2_PLACEMENT_3D ( 'NONE', #279, #260, #66 ) ;
#146 = DIRECTION ( 'NONE',  ( 0.000000000000000000, 0.000000000000000000, 1.000000000000000000 ) ) ;
#147 = ORIENTED_EDGE ( 'NONE', *, *, #69, .T. ) ;
#148 = AXIS2_PLACEMENT_3D ( 'NONE', #62, #102, #207 ) ;
#149 = LOCAL_TIME ( 11, 52, 57.00000000000000000, #61 ) ;
#150 = ADVANCED_FACE ( 'NONE', ( #31 ), #109, .T. ) ;
#151 = ORIENTED_EDGE ( 'NONE', *, *, #101, .T. ) ;
#152 = ORIENTED_EDGE ( 'NONE', *, *, #23, .F. ) ;
#153 = ORIENTED_EDGE ( 'NONE', *, *, #79, .F. ) ;
#154 = EDGE_CURVE ( 'NONE', #243, #52, #34, .T. ) ;
#155 = AXIS2_PLACEMENT_3D ( 'NONE', #133, #165, #15 ) ;
#156 = ORIENTED_EDGE ( 'NONE', *, *, #11, .T. ) ;
#157 = LOCAL_TIME ( 11, 52, 57.00000000000000000, #135 ) ;
#158 = CARTESIAN_POINT ( 'NONE',  ( 6.000000000000000888, 7.347880794884120722E-16, 5.000000000000000000 ) ) ;
#159 = DIRECTION ( 'NONE',  ( 0.000000000000000000, 0.000000000000000000, 1.000000000000000000 ) ) ;
#160 = APPROVAL_STATUS ( 'not_yet_approved' ) ;
#161 = EDGE_LOOP ( 'NONE', ( #201, #194 ) ) ;
#162 = EDGE_CURVE ( 'NONE', #52, #243, #199, .T. ) ;
#163 = TOROIDAL_SURFACE ( 'NONE', #21, 3.700000000000000178, 0.2000000000000000111 ) ;
#164 = CARTESIAN_POINT ( 'NONE',  ( 0.000000000000000000, 0.000000000000000000, 0.000000000000000000 ) ) ;
#165 = DIRECTION ( 'NONE',  ( -0.000000000000000000, -0.000000000000000000, -1.000000000000000000 ) ) ;
#166 = FACE_OUTER_BOUND ( 'NONE', #161, .T. ) ;
#167 = EDGE_CURVE ( 'NONE', #52, #288, #140, .T. ) ;
#168 = CALENDAR_DATE ( 2022, 20, 6 ) ;
#169 = CARTESIAN_POINT ( 'NONE',  ( 0.000000000000000000, 0.000000000000000000, 0.000000000000000000 ) ) ;
#170 = CARTESIAN_POINT ( 'NONE',  ( -6.000000000000000888, 0.000000000000000000, 5.000000000000000000 ) ) ;
#171 = DIRECTION ( 'NONE',  ( 1.000000000000000000, 0.000000000000000000, 0.000000000000000000 ) ) ;
#172 = DIRECTION ( 'NONE',  ( -1.000000000000000000, 0.000000000000000000, 0.000000000000000000 ) ) ;
#173 = PRODUCT_DEFINITION ( 'NEZNÁMÝ', '', #75, #248 ) ;
#174 = PRODUCT_DEFINITION_SHAPE ( 'NONE', 'NONE',  #173 ) ;
#175 = EDGE_CURVE ( 'NONE', #301, #52, #18, .T. ) ;
#176 = ORIENTED_EDGE ( 'NONE', *, *, #91, .T. ) ;
#177 = CIRCLE ( 'NONE', #148, 3.700000000000000178 ) ;
#178 = EDGE_LOOP ( 'NONE', ( #72, #147 ) ) ;
#179 = ADVANCED_FACE ( 'NONE', ( #214 ), #239, .T. ) ;
#180 = DIRECTION ( 'NONE',  ( 1.000000000000000000, 0.000000000000000000, 0.000000000000000000 ) ) ;
#181 = LOCAL_TIME ( 11, 52, 57.00000000000000000, #277 ) ;
#182 = CARTESIAN_POINT ( 'NONE',  ( -3.700000000000000178, 4.531193156845206201E-16, 5.200000000000009948 ) ) ;
#183 = FACE_OUTER_BOUND ( 'NONE', #196, .T. ) ;
#184 = CALENDAR_DATE ( 2022, 20, 6 ) ;
#185 = LINE ( 'NONE', #158, #303 ) ;
#186 = CARTESIAN_POINT ( 'NONE',  ( 0.000000000000000000, 0.000000000000000000, 5.000000000000000000 ) ) ;
#187 = CALENDAR_DATE ( 2022, 20, 6 ) ;
#188 = CARTESIAN_POINT ( 'NONE',  ( 3.700000000000000178, 0.000000000000000000, 5.000000000000005329 ) ) ;
#189 = CARTESIAN_POINT ( 'NONE',  ( -6.000000000000000888, 0.000000000000000000, 0.000000000000000000 ) ) ;
#190 = VECTOR ( 'NONE', #100, 1000.000000000000000 ) ;
#191 = DIRECTION ( 'NONE',  ( 0.000000000000000000, 0.000000000000000000, -1.000000000000000000 ) ) ;
#192 = CARTESIAN_POINT ( 'NONE',  ( -3.500000000000000000, 0.000000000000000000, 5.200000000000009948 ) ) ;
#193 = CC_DESIGN_PERSON_AND_ORGANIZATION_ASSIGNMENT ( #111, #271, ( #75 ) ) ;
#194 = ORIENTED_EDGE ( 'NONE', *, *, #218, .T. ) ;
#195 = EDGE_CURVE ( 'NONE', #291, #287, #74, .T. ) ;
#196 = EDGE_LOOP ( 'NONE', ( #25, #197 ) ) ;
#197 = ORIENTED_EDGE ( 'NONE', *, *, #195, .F. ) ;
#198 = AXIS2_PLACEMENT_3D ( 'NONE', #272, #159, #256 ) ;
#199 = CIRCLE ( 'NONE', #217, 3.500000000000000000 ) ;
#200 = UNCERTAINTY_MEASURE_WITH_UNIT (LENGTH_MEASURE( 1.000000000000000082E-05 ), #19, 'distance_accuracy_value', 'NONE');
#201 = ORIENTED_EDGE ( 'NONE', *, *, #23, .T. ) ;
#202 = ORIENTED_EDGE ( 'NONE', *, *, #91, .F. ) ;
#203 = CYLINDRICAL_SURFACE ( 'NONE', #124, 6.000000000000000888 ) ;
#204 = LOCAL_TIME ( 11, 52, 57.00000000000000000, #297 ) ;
#205 = CARTESIAN_POINT ( 'NONE',  ( -3.500000000000000000, 0.000000000000000000, 205.0000000000000284 ) ) ;
#206 = APPROVAL_DATE_TIME ( #104, #300 ) ;
#207 = DIRECTION ( 'NONE',  ( 1.000000000000000000, 0.000000000000000000, 0.000000000000000000 ) ) ;
#208 = SECURITY_CLASSIFICATION_LEVEL ( 'unclassified' ) ;
#209 = DIRECTION ( 'NONE',  ( -1.000000000000000000, 1.224646799147350742E-16, 0.000000000000000000 ) ) ;
#210 = APPROVAL_ROLE ( '' ) ;
#211 = PLANE ( 'NONE',  #131 ) ;
#212 = AXIS2_PLACEMENT_3D ( 'NONE', #186, #77, #278 ) ;
#213 = PERSON_AND_ORGANIZATION_ROLE ( 'creator' ) ;
#214 = FACE_OUTER_BOUND ( 'NONE', #49, .T. ) ;
#215 = DIRECTION ( 'NONE',  ( 0.000000000000000000, 0.000000000000000000, 1.000000000000000000 ) ) ;
#216 = DIRECTION ( 'NONE',  ( 1.000000000000000000, 0.000000000000000000, 0.000000000000000000 ) ) ;
#217 = AXIS2_PLACEMENT_3D ( 'NONE', #128, #269, #54 ) ;
#218 = EDGE_CURVE ( 'NONE', #286, #222, #115, .T. ) ;
#219 = FACE_OUTER_BOUND ( 'NONE', #121, .T. ) ;
#220 =( GEOMETRIC_REPRESENTATION_CONTEXT ( 3 ) GLOBAL_UNCERTAINTY_ASSIGNED_CONTEXT ( ( #200 ) ) GLOBAL_UNIT_ASSIGNED_CONTEXT ( ( #19, #282, #2 ) ) REPRESENTATION_CONTEXT ( 'NONE', 'WORKASPACE' ) );
#221 = CIRCLE ( 'NONE', #265, 6.000000000000000888 ) ;
#222 = VERTEX_POINT ( 'NONE', #170 ) ;
#223 = CARTESIAN_POINT ( 'NONE',  ( 3.700000000000000178, 0.000000000000000000, 5.200000000000009948 ) ) ;
#224 = CC_DESIGN_PERSON_AND_ORGANIZATION_ASSIGNMENT ( #81, #213, ( #75 ) ) ;
#225 = AXIS2_PLACEMENT_3D ( 'NONE', #304, #255, #85 ) ;
#226 = LINE ( 'NONE', #105, #190 ) ;
#227 = COORDINATED_UNIVERSAL_TIME_OFFSET ( 1, 0, .AHEAD. ) ;
#228 = DIRECTION ( 'NONE',  ( 1.000000000000000000, 0.000000000000000000, -0.000000000000000000 ) ) ;
#229 = ADVANCED_FACE ( 'NONE', ( #236 ), #103, .F. ) ;
#230 = PLANE ( 'NONE',  #285 ) ;
#231 = PERSON_AND_ORGANIZATION ( #93, #119 ) ;
#232 = DIRECTION ( 'NONE',  ( -1.000000000000000000, 0.000000000000000000, 0.000000000000000000 ) ) ;
#233 = CIRCLE ( 'NONE', #92, 3.500000000000000000 ) ;
#234 = APPLICATION_PROTOCOL_DEFINITION ( 'international standard', 'config_control_design', 1994, #292 ) ;
#235 = DIRECTION ( 'NONE',  ( 1.000000000000000000, 0.000000000000000000, -0.000000000000000000 ) ) ;
#236 = FACE_OUTER_BOUND ( 'NONE', #10, .T. ) ;
#237 = CIRCLE ( 'NONE', #155, 3.700000000000000178 ) ;
#238 = CC_DESIGN_PERSON_AND_ORGANIZATION_ASSIGNMENT ( #305, #302, ( #110 ) ) ;
#239 = CYLINDRICAL_SURFACE ( 'NONE', #145, 3.500000000000000000 ) ;
#240 = ORIENTED_EDGE ( 'NONE', *, *, #69, .F. ) ;
#241 = CC_DESIGN_APPROVAL ( #56, ( #173 ) ) ;
#242 = EDGE_LOOP ( 'NONE', ( #73, #156 ) ) ;
#243 = VERTEX_POINT ( 'NONE', #192 ) ;
#244 = ADVANCED_FACE ( 'NONE', ( #219 ), #112, .T. ) ;
#245 = ORIENTED_EDGE ( 'NONE', *, *, #307, .F. ) ;
#246 = ADVANCED_FACE ( 'NONE', ( #261 ), #163, .F. ) ;
#247 = LINE ( 'NONE', #205, #268 ) ;
#248 = DESIGN_CONTEXT ( 'detailed design', #292, 'design' ) ;
#249 = DIRECTION ( 'NONE',  ( 0.000000000000000000, 0.000000000000000000, 1.000000000000000000 ) ) ;
#250 = DATE_AND_TIME ( #257, #181 ) ;
#251 = AXIS2_PLACEMENT_3D ( 'NONE', #169, #114, #216 ) ;
#252 = DIRECTION ( 'NONE',  ( 1.000000000000000000, 0.000000000000000000, -0.000000000000000000 ) ) ;
#253 = APPROVAL_PERSON_ORGANIZATION ( #231, #300, #210 ) ;
#254 = PERSON_AND_ORGANIZATION ( #93, #119 ) ;
#255 = DIRECTION ( 'NONE',  ( 0.000000000000000000, 0.000000000000000000, 1.000000000000000000 ) ) ;
#256 = DIRECTION ( 'NONE',  ( 1.000000000000000000, 0.000000000000000000, 0.000000000000000000 ) ) ;
#257 = CALENDAR_DATE ( 2022, 20, 6 ) ;
#258 = DIRECTION ( 'NONE',  ( 0.000000000000000000, 0.000000000000000000, 1.000000000000000000 ) ) ;
#259 = PLANE ( 'NONE',  #17 ) ;
#260 = DIRECTION ( 'NONE',  ( -0.000000000000000000, -0.000000000000000000, -1.000000000000000000 ) ) ;
#261 = FACE_OUTER_BOUND ( 'NONE', #267, .T. ) ;
#262 = CIRCLE ( 'NONE', #225, 6.000000000000000888 ) ;
#263 = PRODUCT ( '51fc', '51fc', '', ( #14 ) ) ;
#264 = ORIENTED_EDGE ( 'NONE', *, *, #195, .T. ) ;
#265 = AXIS2_PLACEMENT_3D ( 'NONE', #13, #296, #270 ) ;
#266 = ORIENTED_EDGE ( 'NONE', *, *, #162, .F. ) ;
#267 = EDGE_LOOP ( 'NONE', ( #98, #120, #293, #76 ) ) ;
#268 = VECTOR ( 'NONE', #59, 1000.000000000000000 ) ;
#269 = DIRECTION ( 'NONE',  ( 0.000000000000000000, 0.000000000000000000, 1.000000000000000000 ) ) ;
#270 = DIRECTION ( 'NONE',  ( 1.000000000000000000, 0.000000000000000000, 0.000000000000000000 ) ) ;
#271 = PERSON_AND_ORGANIZATION_ROLE ( 'design_supplier' ) ;
#272 = CARTESIAN_POINT ( 'NONE',  ( 0.000000000000000000, 0.000000000000000000, 205.0000000000000284 ) ) ;
#273 = SHAPE_DEFINITION_REPRESENTATION ( #174, #30 ) ;
#274 = VECTOR ( 'NONE', #281, 1000.000000000000000 ) ;
#275 = APPLICATION_CONTEXT ( 'configuration controlled 3d designs of mechanical parts and assemblies' ) ;
#276 = FACE_BOUND ( 'NONE', #242, .T. ) ;
#277 = COORDINATED_UNIVERSAL_TIME_OFFSET ( 1, 0, .AHEAD. ) ;
#278 = DIRECTION ( 'NONE',  ( -1.000000000000000000, 0.000000000000000000, 0.000000000000000000 ) ) ;
#279 = CARTESIAN_POINT ( 'NONE',  ( 0.000000000000000000, 0.000000000000000000, 205.0000000000000284 ) ) ;
#280 = CC_DESIGN_PERSON_AND_ORGANIZATION_ASSIGNMENT ( #42, #138, ( #263 ) ) ;
#281 = DIRECTION ( 'NONE',  ( -0.000000000000000000, -0.000000000000000000, -1.000000000000000000 ) ) ;
#282 =( NAMED_UNIT ( * ) PLANE_ANGLE_UNIT ( ) SI_UNIT ( $, .RADIAN. ) );
#283 = CARTESIAN_POINT ( 'NONE',  ( 0.000000000000000000, 0.000000000000000000, 5.000000000000000000 ) ) ;
#284 = ADVANCED_FACE ( 'NONE', ( #46 ), #259, .T. ) ;
#285 = AXIS2_PLACEMENT_3D ( 'NONE', #84, #249, #252 ) ;
#286 = VERTEX_POINT ( 'NONE', #68 ) ;
#287 = VERTEX_POINT ( 'NONE', #189 ) ;
#288 = VERTEX_POINT ( 'NONE', #188 ) ;
#289 = AXIS2_PLACEMENT_3D ( 'NONE', #20, #258, #70 ) ;
#290 = CC_DESIGN_SECURITY_CLASSIFICATION ( #110, ( #75 ) ) ;
#291 = VERTEX_POINT ( 'NONE', #22 ) ;
#292 = APPLICATION_CONTEXT ( 'configuration controlled 3d designs of mechanical parts and assemblies' ) ;
#293 = ORIENTED_EDGE ( 'NONE', *, *, #7, .F. ) ;
#294 = DIRECTION ( 'NONE',  ( -0.000000000000000000, -0.000000000000000000, -1.000000000000000000 ) ) ;
#295 = DATE_AND_TIME ( #113, #149 ) ;
#296 = DIRECTION ( 'NONE',  ( 0.000000000000000000, 0.000000000000000000, 1.000000000000000000 ) ) ;
#297 = COORDINATED_UNIVERSAL_TIME_OFFSET ( 1, 0, .AHEAD. ) ;
#298 = CARTESIAN_POINT ( 'NONE',  ( 0.000000000000000000, 0.000000000000000000, 5.000000000000000000 ) ) ;
#299 = APPROVAL_ROLE ( '' ) ;
#300 = APPROVAL ( #160, 'NEURÈENÝ' ) ;
#301 = VERTEX_POINT ( 'NONE', #45 ) ;
#302 = PERSON_AND_ORGANIZATION_ROLE ( 'classification_officer' ) ;
#303 = VECTOR ( 'NONE', #294, 1000.000000000000000 ) ;
#304 = CARTESIAN_POINT ( 'NONE',  ( 0.000000000000000000, 0.000000000000000000, 5.000000000000000000 ) ) ;
#305 = PERSON_AND_ORGANIZATION ( #93, #119 ) ;
#306 = CARTESIAN_POINT ( 'NONE',  ( 0.000000000000000000, 0.000000000000000000, 5.200000000000009948 ) ) ;
#307 = EDGE_CURVE ( 'NONE', #50, #301, #233, .T. ) ;
ENDSEC;
END-ISO-10303-21;
