ISO-10303-21;
HEADER;
FILE_DESCRIPTION (( 'STEP AP203' ),
    '1' );
FILE_NAME ('828b.STEP',
    '2022-06-20T09:19:52',
    ( '' ),
    ( '' ),
    'SwSTEP 2.0',
    'SolidWorks 2019',
    '' );
FILE_SCHEMA (( 'CONFIG_CONTROL_DESIGN' ));
ENDSEC;

DATA;
#1 = EDGE_LOOP ( 'NONE', ( #75, #183 ) ) ;
#2 = TOROIDAL_SURFACE ( 'NONE', #254, 10.20000000000000107, 0.2000000000000000111 ) ;
#3 = DIRECTION ( 'NONE',  ( 0.000000000000000000, 0.000000000000000000, 1.000000000000000000 ) ) ;
#4 = PERSON_AND_ORGANIZATION_ROLE ( 'creator' ) ;
#5 = EDGE_CURVE ( 'NONE', #166, #48, #240, .T. ) ;
#6 = DIRECTION ( 'NONE',  ( -0.000000000000000000, -0.000000000000000000, -1.000000000000000000 ) ) ;
#7 = MECHANICAL_CONTEXT ( 'NONE', #115, 'mechanical' ) ;
#8 = AXIS2_PLACEMENT_3D ( 'NONE', #301, #235, #230 ) ;
#9 = CARTESIAN_POINT ( 'NONE',  ( 0.000000000000000000, 0.000000000000000000, 8.000000000000000000 ) ) ;
#10 = APPROVAL_DATE_TIME ( #148, #36 ) ;
#11 = DIRECTION ( 'NONE',  ( -0.000000000000000000, -0.000000000000000000, -1.000000000000000000 ) ) ;
#12 = PERSON_AND_ORGANIZATION_ROLE ( 'creator' ) ;
#13 = CC_DESIGN_DATE_AND_TIME_ASSIGNMENT ( #263, #138, ( #19 ) ) ;
#14 = DIRECTION ( 'NONE',  ( 1.000000000000000000, 0.000000000000000000, -0.000000000000000000 ) ) ;
#15 = DIRECTION ( 'NONE',  ( 0.000000000000000000, 0.000000000000000000, 1.000000000000000000 ) ) ;
#16 = CARTESIAN_POINT ( 'NONE',  ( 0.000000000000000000, 0.000000000000000000, 508.0000000000000000 ) ) ;
#17 = UNCERTAINTY_MEASURE_WITH_UNIT (LENGTH_MEASURE( 1.000000000000000082E-05 ), #176, 'distance_accuracy_value', 'NONE');
#18 = ORIENTED_EDGE ( 'NONE', *, *, #259, .T. ) ;
#19 = SECURITY_CLASSIFICATION ( '', '', #289 ) ;
#20 = LINE ( 'NONE', #113, #189 ) ;
#21 = AXIS2_PLACEMENT_3D ( 'NONE', #271, #150, #85 ) ;
#22 = VERTEX_POINT ( 'NONE', #69 ) ;
#23 = CC_DESIGN_DATE_AND_TIME_ASSIGNMENT ( #172, #54, ( #91 ) ) ;
#24 = AXIS2_PLACEMENT_3D ( 'NONE', #280, #42, #38 ) ;
#25 = ORIENTED_EDGE ( 'NONE', *, *, #243, .F. ) ;
#26 = DATE_AND_TIME ( #239, #221 ) ;
#27 = ORIENTED_EDGE ( 'NONE', *, *, #165, .T. ) ;
#28 = APPROVAL_PERSON_ORGANIZATION ( #95, #112, #168 ) ;
#29 = EDGE_LOOP ( 'NONE', ( #209, #287, #109, #251 ) ) ;
#30 = VECTOR ( 'NONE', #158, 1000.000000000000000 ) ;
#31 = FACE_OUTER_BOUND ( 'NONE', #114, .T. ) ;
#32 = DIRECTION ( 'NONE',  ( -0.000000000000000000, -0.000000000000000000, -1.000000000000000000 ) ) ;
#33 = PERSON_AND_ORGANIZATION ( #65, #272 ) ;
#34 = DIRECTION ( 'NONE',  ( 1.000000000000000000, 0.000000000000000000, 0.000000000000000000 ) ) ;
#35 = PERSON_AND_ORGANIZATION_ROLE ( 'classification_officer' ) ;
#36 = APPROVAL ( #174, 'NEURÈENÝ' ) ;
#37 = CARTESIAN_POINT ( 'NONE',  ( -10.00000000000000000, 0.000000000000000000, 8.199999999999985079 ) ) ;
#38 = DIRECTION ( 'NONE',  ( 1.000000000000000000, 0.000000000000000000, 0.000000000000000000 ) ) ;
#39 = AXIS2_PLACEMENT_3D ( 'NONE', #288, #58, #151 ) ;
#40 = LINE ( 'NONE', #131, #207 ) ;
#41 = AXIS2_PLACEMENT_3D ( 'NONE', #253, #68, #257 ) ;
#42 = DIRECTION ( 'NONE',  ( 0.000000000000000000, 0.000000000000000000, 1.000000000000000000 ) ) ;
#43 = CARTESIAN_POINT ( 'NONE',  ( 0.000000000000000000, 0.000000000000000000, 8.199999999999985079 ) ) ;
#44 = AXIS2_PLACEMENT_3D ( 'NONE', #121, #53, #102 ) ;
#45 = CYLINDRICAL_SURFACE ( 'NONE', #216, 10.00000000000000000 ) ;
#46 = ORIENTED_EDGE ( 'NONE', *, *, #198, .T. ) ;
#47 = LOCAL_TIME ( 11, 19, 52.00000000000000000, #293 ) ;
#48 = VERTEX_POINT ( 'NONE', #159 ) ;
#49 = EDGE_LOOP ( 'NONE', ( #215, #302 ) ) ;
#50 = APPROVAL_DATE_TIME ( #26, #112 ) ;
#51 = ORIENTED_EDGE ( 'NONE', *, *, #146, .T. ) ;
#52 = CC_DESIGN_APPROVAL ( #36, ( #144 ) ) ;
#53 = DIRECTION ( 'NONE',  ( 0.000000000000000000, 0.000000000000000000, 1.000000000000000000 ) ) ;
#54 = DATE_TIME_ROLE ( 'creation_date' ) ;
#55 = CIRCLE ( 'NONE', #134, 13.00000000000000178 ) ;
#56 = DIRECTION ( 'NONE',  ( 1.000000000000000000, 0.000000000000000000, 0.000000000000000000 ) ) ;
#57 = PERSON_AND_ORGANIZATION ( #65, #272 ) ;
#58 = DIRECTION ( 'NONE',  ( 0.000000000000000000, -1.000000000000000000, 0.000000000000000000 ) ) ;
#59 = PERSON_AND_ORGANIZATION ( #65, #272 ) ;
#60 = PRODUCT_RELATED_PRODUCT_CATEGORY ( 'detail', '', ( #269 ) ) ;
#61 = ADVANCED_FACE ( 'NONE', ( #92 ), #201, .T. ) ;
#62 =( GEOMETRIC_REPRESENTATION_CONTEXT ( 3 ) GLOBAL_UNCERTAINTY_ASSIGNED_CONTEXT ( ( #17 ) ) GLOBAL_UNIT_ASSIGNED_CONTEXT ( ( #176, #103, #178 ) ) REPRESENTATION_CONTEXT ( 'NONE', 'WORKASPACE' ) );
#63 = DIRECTION ( 'NONE',  ( 1.000000000000000000, 0.000000000000000000, -0.000000000000000000 ) ) ;
#64 = COORDINATED_UNIVERSAL_TIME_OFFSET ( 1, 0, .AHEAD. ) ;
#65 = PERSON ( 'NEURÈENÝ', 'NEURÈENÝ', 'NEURÈENÝ', ('NEURÈENÝ'), ('NEURÈENÝ'), ('NEURÈENÝ') ) ;
#66 = DIRECTION ( 'NONE',  ( -1.000000000000000000, 0.000000000000000000, 0.000000000000000000 ) ) ;
#67 = CIRCLE ( 'NONE', #252, 13.00000000000000178 ) ;
#68 = DIRECTION ( 'NONE',  ( 0.000000000000000000, 0.000000000000000000, 1.000000000000000000 ) ) ;
#69 = CARTESIAN_POINT ( 'NONE',  ( 13.00000000000000178, 1.592040838891559293E-15, 0.000000000000000000 ) ) ;
#70 = CC_DESIGN_PERSON_AND_ORGANIZATION_ASSIGNMENT ( #83, #127, ( #144 ) ) ;
#71 = CIRCLE ( 'NONE', #39, 0.2000000000000005107 ) ;
#72 = ORIENTED_EDGE ( 'NONE', *, *, #187, .T. ) ;
#73 = ORIENTED_EDGE ( 'NONE', *, *, #243, .T. ) ;
#74 = APPROVAL_STATUS ( 'not_yet_approved' ) ;
#75 = ORIENTED_EDGE ( 'NONE', *, *, #208, .T. ) ;
#76 = DIRECTION ( 'NONE',  ( 0.000000000000000000, 0.000000000000000000, 1.000000000000000000 ) ) ;
#77 = CARTESIAN_POINT ( 'NONE',  ( 0.000000000000000000, 0.000000000000000000, 8.000000000000000000 ) ) ;
#78 = APPLICATION_PROTOCOL_DEFINITION ( 'international standard', 'config_control_design', 1994, #115 ) ;
#79 = CIRCLE ( 'NONE', #279, 10.00000000000000000 ) ;
#80 = CC_DESIGN_PERSON_AND_ORGANIZATION_ASSIGNMENT ( #218, #4, ( #91 ) ) ;
#81 = EDGE_CURVE ( 'NONE', #166, #22, #90, .T. ) ;
#82 = DIRECTION ( 'NONE',  ( 1.000000000000000000, 0.000000000000000000, 0.000000000000000000 ) ) ;
#83 = PERSON_AND_ORGANIZATION ( #65, #272 ) ;
#84 = PLANE ( 'NONE',  #89 ) ;
#85 = DIRECTION ( 'NONE',  ( 1.000000000000000000, 0.000000000000000000, 0.000000000000000000 ) ) ;
#86 = AXIS2_PLACEMENT_3D ( 'NONE', #9, #196, #175 ) ;
#87 = CARTESIAN_POINT ( 'NONE',  ( 13.00000000000000178, 1.592040838891559293E-15, 8.000000000000000000 ) ) ;
#88 = EDGE_LOOP ( 'NONE', ( #265, #260 ) ) ;
#89 = AXIS2_PLACEMENT_3D ( 'NONE', #126, #76, #14 ) ;
#90 = LINE ( 'NONE', #87, #30 ) ;
#91 = PRODUCT_DEFINITION ( 'NEZNÁMÝ', '', #144, #204 ) ;
#92 = FACE_OUTER_BOUND ( 'NONE', #186, .T. ) ;
#93 = CIRCLE ( 'NONE', #236, 10.20000000000000107 ) ;
#94 = ORIENTED_EDGE ( 'NONE', *, *, #259, .F. ) ;
#95 = PERSON_AND_ORGANIZATION ( #65, #272 ) ;
#96 = EDGE_LOOP ( 'NONE', ( #116, #46, #211, #214 ) ) ;
#97 = EDGE_LOOP ( 'NONE', ( #285, #133, #281, #242 ) ) ;
#98 = LOCAL_TIME ( 11, 19, 52.00000000000000000, #200 ) ;
#99 = VERTEX_POINT ( 'NONE', #256 ) ;
#100 = FACE_OUTER_BOUND ( 'NONE', #97, .T. ) ;
#101 = PERSON_AND_ORGANIZATION_ROLE ( 'design_owner' ) ;
#102 = DIRECTION ( 'NONE',  ( 1.000000000000000000, 0.000000000000000000, -0.000000000000000000 ) ) ;
#103 =( NAMED_UNIT ( * ) PLANE_ANGLE_UNIT ( ) SI_UNIT ( $, .RADIAN. ) );
#104 = DIRECTION ( 'NONE',  ( -0.000000000000000000, -0.000000000000000000, -1.000000000000000000 ) ) ;
#105 = AXIS2_PLACEMENT_3D ( 'NONE', #43, #15, #136 ) ;
#106 = CARTESIAN_POINT ( 'NONE',  ( 10.00000000000000000, 1.224646799147353256E-15, 8.199999999999985079 ) ) ;
#107 = DIRECTION ( 'NONE',  ( 1.000000000000000000, 0.000000000000000000, 0.000000000000000000 ) ) ;
#108 = APPROVAL_PERSON_ORGANIZATION ( #33, #237, #197 ) ;
#109 = ORIENTED_EDGE ( 'NONE', *, *, #286, .T. ) ;
#110 = CARTESIAN_POINT ( 'NONE',  ( 0.000000000000000000, 0.000000000000000000, 0.000000000000000000 ) ) ;
#111 = DIRECTION ( 'NONE',  ( 1.000000000000000000, 0.000000000000000000, 0.000000000000000000 ) ) ;
#112 = APPROVAL ( #74, 'NEURÈENÝ' ) ;
#113 = CARTESIAN_POINT ( 'NONE',  ( 10.00000000000000000, 1.224646799147353256E-15, 508.0000000000000000 ) ) ;
#114 = EDGE_LOOP ( 'NONE', ( #188, #143, #27, #307 ) ) ;
#115 = APPLICATION_CONTEXT ( 'configuration controlled 3d designs of mechanical parts and assemblies' ) ;
#116 = ORIENTED_EDGE ( 'NONE', *, *, #164, .F. ) ;
#117 = ORIENTED_EDGE ( 'NONE', *, *, #202, .T. ) ;
#118 = CC_DESIGN_PERSON_AND_ORGANIZATION_ASSIGNMENT ( #228, #12, ( #144 ) ) ;
#119 = AXIS2_PLACEMENT_3D ( 'NONE', #199, #229, #82 ) ;
#120 = VERTEX_POINT ( 'NONE', #232 ) ;
#121 = CARTESIAN_POINT ( 'NONE',  ( 0.000000000000000000, 0.000000000000000000, 0.000000000000000000 ) ) ;
#122 = APPROVAL_DATE_TIME ( #291, #237 ) ;
#123 = DIRECTION ( 'NONE',  ( 0.000000000000000000, 0.000000000000000000, 1.000000000000000000 ) ) ;
#124 = CYLINDRICAL_SURFACE ( 'NONE', #86, 13.00000000000000178 ) ;
#125 = AXIS2_PLACEMENT_3D ( 'NONE', #77, #294, #191 ) ;
#126 = CARTESIAN_POINT ( 'NONE',  ( 0.000000000000000000, 0.000000000000000000, 8.000000000000000000 ) ) ;
#127 = PERSON_AND_ORGANIZATION_ROLE ( 'design_supplier' ) ;
#128 = CLOSED_SHELL ( 'NONE', ( #130, #153, #305, #297, #226, #284, #61, #278, #233 ) ) ;
#129 = LINE ( 'NONE', #177, #180 ) ;
#130 = ADVANCED_FACE ( 'NONE', ( #182 ), #2, .F. ) ;
#131 = CARTESIAN_POINT ( 'NONE',  ( -13.00000000000000178, 0.000000000000000000, 8.000000000000000000 ) ) ;
#132 = CIRCLE ( 'NONE', #119, 10.00000000000000000 ) ;
#133 = ORIENTED_EDGE ( 'NONE', *, *, #146, .F. ) ;
#134 = AXIS2_PLACEMENT_3D ( 'NONE', #110, #154, #111 ) ;
#135 = CARTESIAN_POINT ( 'NONE',  ( 13.00000000000000178, 1.592040838891559293E-15, 8.000000000000000000 ) ) ;
#136 = DIRECTION ( 'NONE',  ( 1.000000000000000000, 0.000000000000000000, 0.000000000000000000 ) ) ;
#137 = DIRECTION ( 'NONE',  ( -0.000000000000000000, -0.000000000000000000, -1.000000000000000000 ) ) ;
#138 = DATE_TIME_ROLE ( 'classification_date' ) ;
#139 = SHAPE_DEFINITION_REPRESENTATION ( #224, #258 ) ;
#140 = EDGE_LOOP ( 'NONE', ( #303, #117, #51, #25 ) ) ;
#141 = CC_DESIGN_PERSON_AND_ORGANIZATION_ASSIGNMENT ( #295, #101, ( #269 ) ) ;
#142 = VERTEX_POINT ( 'NONE', #277 ) ;
#143 = ORIENTED_EDGE ( 'NONE', *, *, #247, .F. ) ;
#144 = PRODUCT_DEFINITION_FORMATION_WITH_SPECIFIED_SOURCE ( 'LIBOVOLNÝ', '', #269, .NOT_KNOWN. ) ;
#145 = DIRECTION ( 'NONE',  ( 0.000000000000000000, 0.000000000000000000, 1.000000000000000000 ) ) ;
#146 = EDGE_CURVE ( 'NONE', #241, #262, #167, .T. ) ;
#147 = PLANE ( 'NONE',  #185 ) ;
#148 = DATE_AND_TIME ( #268, #47 ) ;
#149 = FACE_OUTER_BOUND ( 'NONE', #88, .T. ) ;
#150 = DIRECTION ( 'NONE',  ( 0.000000000000000000, 0.000000000000000000, 1.000000000000000000 ) ) ;
#151 = DIRECTION ( 'NONE',  ( 0.000000000000000000, 0.000000000000000000, -1.000000000000000000 ) ) ;
#152 = CALENDAR_DATE ( 2022, 20, 6 ) ;
#153 = ADVANCED_FACE ( 'NONE', ( #157 ), #45, .T. ) ;
#154 = DIRECTION ( 'NONE',  ( 0.000000000000000000, 0.000000000000000000, 1.000000000000000000 ) ) ;
#155 = DIRECTION ( 'NONE',  ( 1.000000000000000000, 0.000000000000000000, 0.000000000000000000 ) ) ;
#156 = TOROIDAL_SURFACE ( 'NONE', #171, 10.20000000000000107, 0.2000000000000000111 ) ;
#157 = FACE_OUTER_BOUND ( 'NONE', #140, .T. ) ;
#158 = DIRECTION ( 'NONE',  ( -0.000000000000000000, -0.000000000000000000, -1.000000000000000000 ) ) ;
#159 = CARTESIAN_POINT ( 'NONE',  ( -13.00000000000000178, 0.000000000000000000, 8.000000000000000000 ) ) ;
#160 = APPROVAL_PERSON_ORGANIZATION ( #57, #36, #249 ) ;
#161 = ORIENTED_EDGE ( 'NONE', *, *, #164, .T. ) ;
#162 = ORIENTED_EDGE ( 'NONE', *, *, #202, .F. ) ;
#163 = CC_DESIGN_APPROVAL ( #237, ( #91 ) ) ;
#164 = EDGE_CURVE ( 'NONE', #262, #241, #238, .T. ) ;
#165 = EDGE_CURVE ( 'NONE', #48, #190, #40, .T. ) ;
#166 = VERTEX_POINT ( 'NONE', #135 ) ;
#167 = CIRCLE ( 'NONE', #41, 10.00000000000000000 ) ;
#168 = APPROVAL_ROLE ( '' ) ;
#169 = EDGE_LOOP ( 'NONE', ( #18, #72 ) ) ;
#170 = CARTESIAN_POINT ( 'NONE',  ( 0.000000000000000000, 0.000000000000000000, 508.0000000000000000 ) ) ;
#171 = AXIS2_PLACEMENT_3D ( 'NONE', #248, #292, #34 ) ;
#172 = DATE_AND_TIME ( #192, #296 ) ;
#173 = DIRECTION ( 'NONE',  ( -1.000000000000000000, 0.000000000000000000, 0.000000000000000000 ) ) ;
#174 = APPROVAL_STATUS ( 'not_yet_approved' ) ;
#175 = DIRECTION ( 'NONE',  ( -1.000000000000000000, 0.000000000000000000, 0.000000000000000000 ) ) ;
#176 =( LENGTH_UNIT ( ) NAMED_UNIT ( * ) SI_UNIT ( .MILLI., .METRE. ) );
#177 = CARTESIAN_POINT ( 'NONE',  ( -10.00000000000000000, 0.000000000000000000, 508.0000000000000000 ) ) ;
#178 =( NAMED_UNIT ( * ) SI_UNIT ( $, .STERADIAN. ) SOLID_ANGLE_UNIT ( ) );
#179 = EDGE_CURVE ( 'NONE', #190, #22, #55, .T. ) ;
#180 = VECTOR ( 'NONE', #11, 1000.000000000000000 ) ;
#181 = CARTESIAN_POINT ( 'NONE',  ( 0.000000000000000000, 0.000000000000000000, 508.0000000000000000 ) ) ;
#182 = FACE_OUTER_BOUND ( 'NONE', #96, .T. ) ;
#183 = ORIENTED_EDGE ( 'NONE', *, *, #225, .T. ) ;
#184 = CARTESIAN_POINT ( 'NONE',  ( 0.000000000000000000, 0.000000000000000000, 8.199999999999985079 ) ) ;
#185 = AXIS2_PLACEMENT_3D ( 'NONE', #170, #123, #63 ) ;
#186 = EDGE_LOOP ( 'NONE', ( #162, #94, #73, #161 ) ) ;
#187 = EDGE_CURVE ( 'NONE', #142, #120, #79, .T. ) ;
#188 = ORIENTED_EDGE ( 'NONE', *, *, #81, .F. ) ;
#189 = VECTOR ( 'NONE', #6, 1000.000000000000000 ) ;
#190 = VERTEX_POINT ( 'NONE', #205 ) ;
#191 = DIRECTION ( 'NONE',  ( 1.000000000000000000, 0.000000000000000000, 0.000000000000000000 ) ) ;
#192 = CALENDAR_DATE ( 2022, 20, 6 ) ;
#193 = CIRCLE ( 'NONE', #282, 13.00000000000000178 ) ;
#194 = CARTESIAN_POINT ( 'NONE',  ( 0.000000000000000000, 0.000000000000000000, 8.000000000000000000 ) ) ;
#195 = CALENDAR_DATE ( 2022, 20, 6 ) ;
#196 = DIRECTION ( 'NONE',  ( -0.000000000000000000, -0.000000000000000000, -1.000000000000000000 ) ) ;
#197 = APPROVAL_ROLE ( '' ) ;
#198 = EDGE_CURVE ( 'NONE', #262, #304, #283, .T. ) ;
#199 = CARTESIAN_POINT ( 'NONE',  ( 0.000000000000000000, 0.000000000000000000, 508.0000000000000000 ) ) ;
#200 = COORDINATED_UNIVERSAL_TIME_OFFSET ( 1, 0, .AHEAD. ) ;
#201 = CYLINDRICAL_SURFACE ( 'NONE', #231, 10.00000000000000000 ) ;
#202 = EDGE_CURVE ( 'NONE', #142, #241, #20, .T. ) ;
#203 = DIRECTION ( 'NONE',  ( 1.000000000000000000, 0.000000000000000000, 0.000000000000000000 ) ) ;
#204 = DESIGN_CONTEXT ( 'detailed design', #212, 'design' ) ;
#205 = CARTESIAN_POINT ( 'NONE',  ( -13.00000000000000178, 0.000000000000000000, 0.000000000000000000 ) ) ;
#206 = CARTESIAN_POINT ( 'NONE',  ( 0.000000000000000000, 0.000000000000000000, 508.0000000000000000 ) ) ;
#207 = VECTOR ( 'NONE', #255, 1000.000000000000000 ) ;
#208 = EDGE_CURVE ( 'NONE', #99, #304, #93, .T. ) ;
#209 = ORIENTED_EDGE ( 'NONE', *, *, #5, .F. ) ;
#210 = EDGE_CURVE ( 'NONE', #241, #99, #71, .T. ) ;
#211 = ORIENTED_EDGE ( 'NONE', *, *, #208, .F. ) ;
#212 = APPLICATION_CONTEXT ( 'configuration controlled 3d designs of mechanical parts and assemblies' ) ;
#213 = COORDINATED_UNIVERSAL_TIME_OFFSET ( 1, 0, .AHEAD. ) ;
#214 = ORIENTED_EDGE ( 'NONE', *, *, #210, .F. ) ;
#215 = ORIENTED_EDGE ( 'NONE', *, *, #179, .F. ) ;
#216 = AXIS2_PLACEMENT_3D ( 'NONE', #16, #137, #234 ) ;
#217 = FACE_BOUND ( 'NONE', #1, .T. ) ;
#218 = PERSON_AND_ORGANIZATION ( #65, #272 ) ;
#219 = MANIFOLD_SOLID_BREP ( 'Zaoblit1', #128 ) ;
#220 = CARTESIAN_POINT ( 'NONE',  ( 0.000000000000000000, 0.000000000000000000, 8.000000000000000000 ) ) ;
#221 = LOCAL_TIME ( 11, 19, 52.00000000000000000, #213 ) ;
#222 = DIRECTION ( 'NONE',  ( 1.000000000000000000, 0.000000000000000000, 0.000000000000000000 ) ) ;
#223 = APPROVAL_STATUS ( 'not_yet_approved' ) ;
#224 = PRODUCT_DEFINITION_SHAPE ( 'NONE', 'NONE',  #91 ) ;
#225 = EDGE_CURVE ( 'NONE', #304, #99, #306, .T. ) ;
#226 = ADVANCED_FACE ( 'NONE', ( #217, #149 ), #84, .T. ) ;
#227 = CARTESIAN_POINT ( 'NONE',  ( 0.000000000000000000, 0.000000000000000000, 8.000000000000000000 ) ) ;
#228 = PERSON_AND_ORGANIZATION ( #65, #272 ) ;
#229 = DIRECTION ( 'NONE',  ( 0.000000000000000000, 0.000000000000000000, 1.000000000000000000 ) ) ;
#230 = DIRECTION ( 'NONE',  ( -1.000000000000000000, 1.224646799147353207E-16, 0.000000000000000000 ) ) ;
#231 = AXIS2_PLACEMENT_3D ( 'NONE', #181, #275, #66 ) ;
#232 = CARTESIAN_POINT ( 'NONE',  ( -10.00000000000000000, 0.000000000000000000, 508.0000000000000000 ) ) ;
#233 = ADVANCED_FACE ( 'NONE', ( #100 ), #156, .F. ) ;
#234 = DIRECTION ( 'NONE',  ( -1.000000000000000000, 0.000000000000000000, 0.000000000000000000 ) ) ;
#235 = DIRECTION ( 'NONE',  ( 1.224646799147353207E-16, 1.000000000000000000, -0.000000000000000000 ) ) ;
#236 = AXIS2_PLACEMENT_3D ( 'NONE', #220, #104, #222 ) ;
#237 = APPROVAL ( #223, 'NEURÈENÝ' ) ;
#238 = CIRCLE ( 'NONE', #105, 10.00000000000000000 ) ;
#239 = CALENDAR_DATE ( 2022, 20, 6 ) ;
#240 = CIRCLE ( 'NONE', #24, 13.00000000000000178 ) ;
#241 = VERTEX_POINT ( 'NONE', #106 ) ;
#242 = ORIENTED_EDGE ( 'NONE', *, *, #225, .F. ) ;
#243 = EDGE_CURVE ( 'NONE', #120, #262, #129, .T. ) ;
#244 = CYLINDRICAL_SURFACE ( 'NONE', #261, 13.00000000000000178 ) ;
#245 = COORDINATED_UNIVERSAL_TIME_OFFSET ( 1, 0, .AHEAD. ) ;
#246 = FACE_OUTER_BOUND ( 'NONE', #29, .T. ) ;
#247 = EDGE_CURVE ( 'NONE', #48, #166, #193, .T. ) ;
#248 = CARTESIAN_POINT ( 'NONE',  ( 0.000000000000000000, 0.000000000000000000, 8.199999999999985079 ) ) ;
#249 = APPROVAL_ROLE ( '' ) ;
#250 = PLANE ( 'NONE',  #44 ) ;
#251 = ORIENTED_EDGE ( 'NONE', *, *, #165, .F. ) ;
#252 = AXIS2_PLACEMENT_3D ( 'NONE', #270, #145, #56 ) ;
#253 = CARTESIAN_POINT ( 'NONE',  ( 0.000000000000000000, 0.000000000000000000, 8.199999999999985079 ) ) ;
#254 = AXIS2_PLACEMENT_3D ( 'NONE', #184, #299, #155 ) ;
#255 = DIRECTION ( 'NONE',  ( -0.000000000000000000, -0.000000000000000000, -1.000000000000000000 ) ) ;
#256 = CARTESIAN_POINT ( 'NONE',  ( 10.20000000000000107, 0.000000000000000000, 7.999999999999992895 ) ) ;
#257 = DIRECTION ( 'NONE',  ( 1.000000000000000000, 0.000000000000000000, 0.000000000000000000 ) ) ;
#258 = ADVANCED_BREP_SHAPE_REPRESENTATION ( '828b', ( #219, #21 ), #62 ) ;
#259 = EDGE_CURVE ( 'NONE', #120, #142, #132, .T. ) ;
#260 = ORIENTED_EDGE ( 'NONE', *, *, #5, .T. ) ;
#261 = AXIS2_PLACEMENT_3D ( 'NONE', #194, #32, #173 ) ;
#262 = VERTEX_POINT ( 'NONE', #37 ) ;
#263 = DATE_AND_TIME ( #152, #98 ) ;
#264 = CC_DESIGN_PERSON_AND_ORGANIZATION_ASSIGNMENT ( #59, #35, ( #19 ) ) ;
#265 = ORIENTED_EDGE ( 'NONE', *, *, #247, .T. ) ;
#266 = FACE_OUTER_BOUND ( 'NONE', #49, .T. ) ;
#267 = CARTESIAN_POINT ( 'NONE',  ( -10.20000000000000107, 1.249139735130300365E-15, 7.999999999999992895 ) ) ;
#268 = CALENDAR_DATE ( 2022, 20, 6 ) ;
#269 = PRODUCT ( '828b', '828b', '', ( #7 ) ) ;
#270 = CARTESIAN_POINT ( 'NONE',  ( 0.000000000000000000, 0.000000000000000000, 0.000000000000000000 ) ) ;
#271 = CARTESIAN_POINT ( 'NONE',  ( 0.000000000000000000, 0.000000000000000000, 0.000000000000000000 ) ) ;
#272 = ORGANIZATION ( 'NEURÈENÝ', 'NEURÈENÝ', '' ) ;
#273 = FACE_OUTER_BOUND ( 'NONE', #169, .T. ) ;
#274 = APPLICATION_PROTOCOL_DEFINITION ( 'international standard', 'config_control_design', 1994, #212 ) ;
#275 = DIRECTION ( 'NONE',  ( -0.000000000000000000, -0.000000000000000000, -1.000000000000000000 ) ) ;
#276 = CC_DESIGN_SECURITY_CLASSIFICATION ( #19, ( #144 ) ) ;
#277 = CARTESIAN_POINT ( 'NONE',  ( 10.00000000000000000, 1.224646799147353256E-15, 508.0000000000000000 ) ) ;
#278 = ADVANCED_FACE ( 'NONE', ( #273 ), #147, .T. ) ;
#279 = AXIS2_PLACEMENT_3D ( 'NONE', #206, #298, #203 ) ;
#280 = CARTESIAN_POINT ( 'NONE',  ( 0.000000000000000000, 0.000000000000000000, 8.000000000000000000 ) ) ;
#281 = ORIENTED_EDGE ( 'NONE', *, *, #210, .T. ) ;
#282 = AXIS2_PLACEMENT_3D ( 'NONE', #227, #3, #107 ) ;
#283 = CIRCLE ( 'NONE', #8, 0.2000000000000005107 ) ;
#284 = ADVANCED_FACE ( 'NONE', ( #266 ), #250, .F. ) ;
#285 = ORIENTED_EDGE ( 'NONE', *, *, #198, .F. ) ;
#286 = EDGE_CURVE ( 'NONE', #22, #190, #67, .T. ) ;
#287 = ORIENTED_EDGE ( 'NONE', *, *, #81, .T. ) ;
#288 = CARTESIAN_POINT ( 'NONE',  ( 10.20000000000000107, 0.000000000000000000, 8.199999999999985079 ) ) ;
#289 = SECURITY_CLASSIFICATION_LEVEL ( 'unclassified' ) ;
#290 = CC_DESIGN_APPROVAL ( #112, ( #19 ) ) ;
#291 = DATE_AND_TIME ( #195, #300 ) ;
#292 = DIRECTION ( 'NONE',  ( 0.000000000000000000, 0.000000000000000000, 1.000000000000000000 ) ) ;
#293 = COORDINATED_UNIVERSAL_TIME_OFFSET ( 1, 0, .AHEAD. ) ;
#294 = DIRECTION ( 'NONE',  ( -0.000000000000000000, -0.000000000000000000, -1.000000000000000000 ) ) ;
#295 = PERSON_AND_ORGANIZATION ( #65, #272 ) ;
#296 = LOCAL_TIME ( 11, 19, 52.00000000000000000, #64 ) ;
#297 = ADVANCED_FACE ( 'NONE', ( #31 ), #244, .T. ) ;
#298 = DIRECTION ( 'NONE',  ( 0.000000000000000000, 0.000000000000000000, 1.000000000000000000 ) ) ;
#299 = DIRECTION ( 'NONE',  ( 0.000000000000000000, 0.000000000000000000, 1.000000000000000000 ) ) ;
#300 = LOCAL_TIME ( 11, 19, 52.00000000000000000, #245 ) ;
#301 = CARTESIAN_POINT ( 'NONE',  ( -10.20000000000000107, 1.249139735130300365E-15, 8.199999999999985079 ) ) ;
#302 = ORIENTED_EDGE ( 'NONE', *, *, #286, .F. ) ;
#303 = ORIENTED_EDGE ( 'NONE', *, *, #187, .F. ) ;
#304 = VERTEX_POINT ( 'NONE', #267 ) ;
#305 = ADVANCED_FACE ( 'NONE', ( #246 ), #124, .T. ) ;
#306 = CIRCLE ( 'NONE', #125, 10.20000000000000107 ) ;
#307 = ORIENTED_EDGE ( 'NONE', *, *, #179, .T. ) ;
ENDSEC;
END-ISO-10303-21;
