ISO-10303-21;
HEADER;
FILE_DESCRIPTION (( 'STEP AP203' ),
    '1' );
FILE_NAME ('68f5.STEP',
    '2022-06-20T09:58:40',
    ( '' ),
    ( '' ),
    'SwSTEP 2.0',
    'SolidWorks 2019',
    '' );
FILE_SCHEMA (( 'CONFIG_CONTROL_DESIGN' ));
ENDSEC;

DATA;
#1 = FACE_OUTER_BOUND ( 'NONE', #76, .T. ) ;
#2 = CC_DESIGN_PERSON_AND_ORGANIZATION_ASSIGNMENT ( #92, #155, ( #3 ) ) ;
#3 = PRODUCT_DEFINITION ( 'NEZNÁMÝ', '', #233, #272 ) ;
#4 = CIRCLE ( 'NONE', #80, 2.750000000000000000 ) ;
#5 = ADVANCED_FACE ( 'NONE', ( #140, #182 ), #239, .T. ) ;
#6 = CARTESIAN_POINT ( 'NONE',  ( 0.000000000000000000, 0.000000000000000000, 0.000000000000000000 ) ) ;
#7 = CC_DESIGN_PERSON_AND_ORGANIZATION_ASSIGNMENT ( #90, #129, ( #119 ) ) ;
#8 = DIRECTION ( 'NONE',  ( 1.000000000000000000, 0.000000000000000000, -0.000000000000000000 ) ) ;
#9 =( NAMED_UNIT ( * ) PLANE_ANGLE_UNIT ( ) SI_UNIT ( $, .RADIAN. ) );
#10 = ADVANCED_FACE ( 'NONE', ( #1 ), #57, .F. ) ;
#11 = TOROIDAL_SURFACE ( 'NONE', #238, 2.949999999999999734, 0.2000000000000000111 ) ;
#12 = DIRECTION ( 'NONE',  ( 0.000000000000000000, 0.000000000000000000, 1.000000000000000000 ) ) ;
#13 =( GEOMETRIC_REPRESENTATION_CONTEXT ( 3 ) GLOBAL_UNCERTAINTY_ASSIGNED_CONTEXT ( ( #133 ) ) GLOBAL_UNIT_ASSIGNED_CONTEXT ( ( #218, #9, #191 ) ) REPRESENTATION_CONTEXT ( 'NONE', 'WORKASPACE' ) );
#14 = CALENDAR_DATE ( 2022, 20, 6 ) ;
#15 = SHAPE_DEFINITION_REPRESENTATION ( #203, #177 ) ;
#16 = ORIENTED_EDGE ( 'NONE', *, *, #240, .T. ) ;
#17 = DATE_AND_TIME ( #297, #216 ) ;
#18 = ORGANIZATION ( 'NEURÈENÝ', 'NEURÈENÝ', '' ) ;
#19 = EDGE_LOOP ( 'NONE', ( #197, #228, #231, #298 ) ) ;
#20 = DATE_AND_TIME ( #72, #86 ) ;
#21 = EDGE_LOOP ( 'NONE', ( #296, #226 ) ) ;
#22 = EDGE_CURVE ( 'NONE', #304, #126, #229, .T. ) ;
#23 = DATE_TIME_ROLE ( 'classification_date' ) ;
#24 = ORIENTED_EDGE ( 'NONE', *, *, #135, .T. ) ;
#25 = CARTESIAN_POINT ( 'NONE',  ( 0.000000000000000000, 0.000000000000000000, 3.000000000000000000 ) ) ;
#26 = LINE ( 'NONE', #113, #302 ) ;
#27 = AXIS2_PLACEMENT_3D ( 'NONE', #48, #28, #276 ) ;
#28 = DIRECTION ( 'NONE',  ( 1.224646799147353207E-16, 1.000000000000000000, -0.000000000000000000 ) ) ;
#29 = DIRECTION ( 'NONE',  ( 1.000000000000000000, 0.000000000000000000, 0.000000000000000000 ) ) ;
#30 = CARTESIAN_POINT ( 'NONE',  ( 0.000000000000000000, 0.000000000000000000, 3.199999999999980638 ) ) ;
#31 = EDGE_CURVE ( 'NONE', #293, #232, #154, .T. ) ;
#32 = CARTESIAN_POINT ( 'NONE',  ( 5.000000000000000000, 6.123233995736766282E-16, 3.000000000000000000 ) ) ;
#33 = CARTESIAN_POINT ( 'NONE',  ( 0.000000000000000000, 0.000000000000000000, 3.000000000000000000 ) ) ;
#34 = CC_DESIGN_SECURITY_CLASSIFICATION ( #119, ( #233 ) ) ;
#35 = CYLINDRICAL_SURFACE ( 'NONE', #141, 2.750000000000000000 ) ;
#36 = DIRECTION ( 'NONE',  ( 1.000000000000000000, 0.000000000000000000, 0.000000000000000000 ) ) ;
#37 = ADVANCED_FACE ( 'NONE', ( #278 ), #99, .T. ) ;
#38 = PLANE ( 'NONE',  #79 ) ;
#39 = AXIS2_PLACEMENT_3D ( 'NONE', #242, #221, #147 ) ;
#40 = DATE_AND_TIME ( #152, #121 ) ;
#41 = CC_DESIGN_APPROVAL ( #217, ( #3 ) ) ;
#42 = ORIENTED_EDGE ( 'NONE', *, *, #89, .T. ) ;
#43 = EDGE_LOOP ( 'NONE', ( #109, #306 ) ) ;
#44 = PERSON_AND_ORGANIZATION_ROLE ( 'creator' ) ;
#45 = VERTEX_POINT ( 'NONE', #163 ) ;
#46 = COORDINATED_UNIVERSAL_TIME_OFFSET ( 1, 0, .AHEAD. ) ;
#47 = AXIS2_PLACEMENT_3D ( 'NONE', #112, #255, #280 ) ;
#48 = CARTESIAN_POINT ( 'NONE',  ( -2.949999999999999734, 3.612708057484692097E-16, 3.199999999999980638 ) ) ;
#49 = CARTESIAN_POINT ( 'NONE',  ( 2.750000000000000000, 3.367778697655221012E-16, 1002.999999999999886 ) ) ;
#50 = APPROVAL_PERSON_ORGANIZATION ( #195, #217, #225 ) ;
#51 = DIRECTION ( 'NONE',  ( -0.000000000000000000, -0.000000000000000000, -1.000000000000000000 ) ) ;
#52 = AXIS2_PLACEMENT_3D ( 'NONE', #25, #116, #209 ) ;
#53 = CARTESIAN_POINT ( 'NONE',  ( 0.000000000000000000, 0.000000000000000000, 3.199999999999980638 ) ) ;
#54 = DIRECTION ( 'NONE',  ( 1.000000000000000000, 0.000000000000000000, 0.000000000000000000 ) ) ;
#55 = LOCAL_TIME ( 11, 58, 40.00000000000000000, #222 ) ;
#56 = CARTESIAN_POINT ( 'NONE',  ( -2.750000000000000000, 0.000000000000000000, 3.199999999999980638 ) ) ;
#57 = TOROIDAL_SURFACE ( 'NONE', #224, 2.949999999999999734, 0.2000000000000000111 ) ;
#58 = FACE_OUTER_BOUND ( 'NONE', #248, .T. ) ;
#59 = CARTESIAN_POINT ( 'NONE',  ( 5.000000000000000000, 6.123233995736766282E-16, 0.000000000000000000 ) ) ;
#60 = VECTOR ( 'NONE', #169, 1000.000000000000000 ) ;
#61 = CARTESIAN_POINT ( 'NONE',  ( 0.000000000000000000, 0.000000000000000000, 0.000000000000000000 ) ) ;
#62 = AXIS2_PLACEMENT_3D ( 'NONE', #179, #78, #181 ) ;
#63 = CARTESIAN_POINT ( 'NONE',  ( -2.750000000000000000, 0.000000000000000000, 1002.999999999999886 ) ) ;
#64 = APPROVAL_STATUS ( 'not_yet_approved' ) ;
#65 = CC_DESIGN_PERSON_AND_ORGANIZATION_ASSIGNMENT ( #110, #157, ( #282 ) ) ;
#66 = DATE_AND_TIME ( #14, #55 ) ;
#67 = ORIENTED_EDGE ( 'NONE', *, *, #286, .T. ) ;
#68 = ADVANCED_FACE ( 'NONE', ( #256 ), #75, .T. ) ;
#69 = CARTESIAN_POINT ( 'NONE',  ( 0.000000000000000000, 0.000000000000000000, 0.000000000000000000 ) ) ;
#70 = CC_DESIGN_PERSON_AND_ORGANIZATION_ASSIGNMENT ( #124, #44, ( #233 ) ) ;
#71 = EDGE_CURVE ( 'NONE', #153, #200, #307, .T. ) ;
#72 = CALENDAR_DATE ( 2022, 20, 6 ) ;
#73 = ADVANCED_FACE ( 'NONE', ( #303 ), #138, .T. ) ;
#74 = VERTEX_POINT ( 'NONE', #49 ) ;
#75 = CYLINDRICAL_SURFACE ( 'NONE', #88, 5.000000000000000000 ) ;
#76 = EDGE_LOOP ( 'NONE', ( #93, #42, #96, #160 ) ) ;
#77 = CIRCLE ( 'NONE', #180, 2.750000000000000000 ) ;
#78 = DIRECTION ( 'NONE',  ( 0.000000000000000000, 0.000000000000000000, 1.000000000000000000 ) ) ;
#79 = AXIS2_PLACEMENT_3D ( 'NONE', #61, #12, #8 ) ;
#80 = AXIS2_PLACEMENT_3D ( 'NONE', #186, #213, #118 ) ;
#81 = DIRECTION ( 'NONE',  ( 1.000000000000000000, 0.000000000000000000, 0.000000000000000000 ) ) ;
#82 = DIRECTION ( 'NONE',  ( -1.000000000000000000, 0.000000000000000000, 0.000000000000000000 ) ) ;
#83 = DIRECTION ( 'NONE',  ( -0.000000000000000000, -0.000000000000000000, -1.000000000000000000 ) ) ;
#84 = CARTESIAN_POINT ( 'NONE',  ( -2.949999999999999734, 3.612708057484692097E-16, 2.999999999999990674 ) ) ;
#85 = CARTESIAN_POINT ( 'NONE',  ( 2.750000000000000000, 3.367778697655221012E-16, 1002.999999999999886 ) ) ;
#86 = LOCAL_TIME ( 11, 58, 40.00000000000000000, #171 ) ;
#87 = LINE ( 'NONE', #219, #60 ) ;
#88 = AXIS2_PLACEMENT_3D ( 'NONE', #204, #51, #82 ) ;
#89 = EDGE_CURVE ( 'NONE', #200, #304, #123, .T. ) ;
#90 = PERSON_AND_ORGANIZATION ( #162, #18 ) ;
#91 = ORIENTED_EDGE ( 'NONE', *, *, #205, .T. ) ;
#92 = PERSON_AND_ORGANIZATION ( #162, #18 ) ;
#93 = ORIENTED_EDGE ( 'NONE', *, *, #135, .F. ) ;
#94 = APPROVAL_ROLE ( '' ) ;
#95 = APPROVAL_ROLE ( '' ) ;
#96 = ORIENTED_EDGE ( 'NONE', *, *, #268, .F. ) ;
#97 = ORIENTED_EDGE ( 'NONE', *, *, #31, .F. ) ;
#98 = CC_DESIGN_DATE_AND_TIME_ASSIGNMENT ( #40, #23, ( #119 ) ) ;
#99 = CYLINDRICAL_SURFACE ( 'NONE', #47, 5.000000000000000000 ) ;
#100 = AXIS2_PLACEMENT_3D ( 'NONE', #258, #161, #54 ) ;
#101 = CARTESIAN_POINT ( 'NONE',  ( 0.000000000000000000, 0.000000000000000000, 1002.999999999999886 ) ) ;
#102 = EDGE_LOOP ( 'NONE', ( #300, #111, #305, #24 ) ) ;
#103 = EDGE_LOOP ( 'NONE', ( #196, #16, #178, #273 ) ) ;
#104 = CIRCLE ( 'NONE', #289, 0.2000000000000000944 ) ;
#105 = DIRECTION ( 'NONE',  ( 0.000000000000000000, -1.000000000000000000, 0.000000000000000000 ) ) ;
#106 = FACE_OUTER_BOUND ( 'NONE', #102, .T. ) ;
#107 = ADVANCED_FACE ( 'NONE', ( #235 ), #257, .T. ) ;
#108 = APPROVAL_DATE_TIME ( #66, #183 ) ;
#109 = ORIENTED_EDGE ( 'NONE', *, *, #268, .T. ) ;
#110 = PERSON_AND_ORGANIZATION ( #162, #18 ) ;
#111 = ORIENTED_EDGE ( 'NONE', *, *, #274, .F. ) ;
#112 = CARTESIAN_POINT ( 'NONE',  ( 0.000000000000000000, 0.000000000000000000, 3.000000000000000000 ) ) ;
#113 = CARTESIAN_POINT ( 'NONE',  ( -5.000000000000000000, 0.000000000000000000, 3.000000000000000000 ) ) ;
#114 = CARTESIAN_POINT ( 'NONE',  ( 2.949999999999999734, 0.000000000000000000, 2.999999999999990674 ) ) ;
#115 = CARTESIAN_POINT ( 'NONE',  ( 0.000000000000000000, 0.000000000000000000, 1002.999999999999886 ) ) ;
#116 = DIRECTION ( 'NONE',  ( -0.000000000000000000, -0.000000000000000000, -1.000000000000000000 ) ) ;
#117 = LINE ( 'NONE', #85, #202 ) ;
#118 = DIRECTION ( 'NONE',  ( 1.000000000000000000, 0.000000000000000000, 0.000000000000000000 ) ) ;
#119 = SECURITY_CLASSIFICATION ( '', '', #174 ) ;
#120 = CARTESIAN_POINT ( 'NONE',  ( 2.750000000000000000, 3.367778697655221012E-16, 3.199999999999980638 ) ) ;
#121 = LOCAL_TIME ( 11, 58, 40.00000000000000000, #269 ) ;
#122 = APPLICATION_PROTOCOL_DEFINITION ( 'international standard', 'config_control_design', 1994, #254 ) ;
#123 = CIRCLE ( 'NONE', #27, 0.2000000000000000944 ) ;
#124 = PERSON_AND_ORGANIZATION ( #162, #18 ) ;
#125 = ORIENTED_EDGE ( 'NONE', *, *, #71, .F. ) ;
#126 = VERTEX_POINT ( 'NONE', #114 ) ;
#127 = CIRCLE ( 'NONE', #287, 5.000000000000000000 ) ;
#128 = AXIS2_PLACEMENT_3D ( 'NONE', #69, #170, #199 ) ;
#129 = PERSON_AND_ORGANIZATION_ROLE ( 'classification_officer' ) ;
#130 = ORIENTED_EDGE ( 'NONE', *, *, #144, .T. ) ;
#131 = PRODUCT_RELATED_PRODUCT_CATEGORY ( 'detail', '', ( #282 ) ) ;
#132 = PERSON_AND_ORGANIZATION ( #162, #18 ) ;
#133 = UNCERTAINTY_MEASURE_WITH_UNIT (LENGTH_MEASURE( 1.000000000000000082E-05 ), #218, 'distance_accuracy_value', 'NONE');
#134 = ORIENTED_EDGE ( 'NONE', *, *, #194, .F. ) ;
#135 = EDGE_CURVE ( 'NONE', #200, #153, #77, .T. ) ;
#136 = DIRECTION ( 'NONE',  ( 0.000000000000000000, 0.000000000000000000, 1.000000000000000000 ) ) ;
#137 = CLOSED_SHELL ( 'NONE', ( #10, #73, #68, #37, #5, #176, #212, #107, #210 ) ) ;
#138 = CYLINDRICAL_SURFACE ( 'NONE', #261, 2.750000000000000000 ) ;
#139 = CARTESIAN_POINT ( 'NONE',  ( 0.000000000000000000, 0.000000000000000000, 3.000000000000000000 ) ) ;
#140 = FACE_BOUND ( 'NONE', #43, .T. ) ;
#141 = AXIS2_PLACEMENT_3D ( 'NONE', #164, #143, #190 ) ;
#142 = LOCAL_TIME ( 11, 58, 40.00000000000000000, #292 ) ;
#143 = DIRECTION ( 'NONE',  ( -0.000000000000000000, -0.000000000000000000, -1.000000000000000000 ) ) ;
#144 = EDGE_CURVE ( 'NONE', #293, #45, #26, .T. ) ;
#145 = DIRECTION ( 'NONE',  ( -0.000000000000000000, -0.000000000000000000, -1.000000000000000000 ) ) ;
#146 = APPROVAL_PERSON_ORGANIZATION ( #132, #151, #94 ) ;
#147 = DIRECTION ( 'NONE',  ( 1.000000000000000000, 0.000000000000000000, 0.000000000000000000 ) ) ;
#148 = DIRECTION ( 'NONE',  ( 1.000000000000000000, 0.000000000000000000, 0.000000000000000000 ) ) ;
#149 = DATE_TIME_ROLE ( 'creation_date' ) ;
#150 = VERTEX_POINT ( 'NONE', #59 ) ;
#151 = APPROVAL ( #64, 'NEURÈENÝ' ) ;
#152 = CALENDAR_DATE ( 2022, 20, 6 ) ;
#153 = VERTEX_POINT ( 'NONE', #120 ) ;
#154 = CIRCLE ( 'NONE', #266, 5.000000000000000000 ) ;
#155 = PERSON_AND_ORGANIZATION_ROLE ( 'creator' ) ;
#156 = CC_DESIGN_APPROVAL ( #183, ( #119 ) ) ;
#157 = PERSON_AND_ORGANIZATION_ROLE ( 'design_owner' ) ;
#158 = DIRECTION ( 'NONE',  ( -0.000000000000000000, -0.000000000000000000, -1.000000000000000000 ) ) ;
#159 = DIRECTION ( 'NONE',  ( 1.000000000000000000, 0.000000000000000000, -0.000000000000000000 ) ) ;
#160 = ORIENTED_EDGE ( 'NONE', *, *, #286, .F. ) ;
#161 = DIRECTION ( 'NONE',  ( 0.000000000000000000, 0.000000000000000000, 1.000000000000000000 ) ) ;
#162 = PERSON ( 'NEURÈENÝ', 'NEURÈENÝ', 'NEURÈENÝ', ('NEURÈENÝ'), ('NEURÈENÝ'), ('NEURÈENÝ') ) ;
#163 = CARTESIAN_POINT ( 'NONE',  ( -5.000000000000000000, 0.000000000000000000, 0.000000000000000000 ) ) ;
#164 = CARTESIAN_POINT ( 'NONE',  ( 0.000000000000000000, 0.000000000000000000, 1002.999999999999886 ) ) ;
#165 = APPROVAL_PERSON_ORGANIZATION ( #267, #183, #95 ) ;
#166 = AXIS2_PLACEMENT_3D ( 'NONE', #264, #284, #288 ) ;
#167 = DIRECTION ( 'NONE',  ( 0.000000000000000000, 0.000000000000000000, 1.000000000000000000 ) ) ;
#168 = DIRECTION ( 'NONE',  ( 0.000000000000000000, 0.000000000000000000, 1.000000000000000000 ) ) ;
#169 = DIRECTION ( 'NONE',  ( -0.000000000000000000, -0.000000000000000000, -1.000000000000000000 ) ) ;
#170 = DIRECTION ( 'NONE',  ( 0.000000000000000000, 0.000000000000000000, 1.000000000000000000 ) ) ;
#171 = COORDINATED_UNIVERSAL_TIME_OFFSET ( 1, 0, .AHEAD. ) ;
#172 = ORIENTED_EDGE ( 'NONE', *, *, #274, .T. ) ;
#173 = CIRCLE ( 'NONE', #39, 5.000000000000000000 ) ;
#174 = SECURITY_CLASSIFICATION_LEVEL ( 'unclassified' ) ;
#175 = ORIENTED_EDGE ( 'NONE', *, *, #237, .F. ) ;
#176 = ADVANCED_FACE ( 'NONE', ( #58 ), #38, .F. ) ;
#177 = ADVANCED_BREP_SHAPE_REPRESENTATION ( '68f5', ( #220, #128 ), #13 ) ;
#178 = ORIENTED_EDGE ( 'NONE', *, *, #71, .T. ) ;
#179 = CARTESIAN_POINT ( 'NONE',  ( 0.000000000000000000, 0.000000000000000000, 3.000000000000000000 ) ) ;
#180 = AXIS2_PLACEMENT_3D ( 'NONE', #53, #236, #234 ) ;
#181 = DIRECTION ( 'NONE',  ( 1.000000000000000000, 0.000000000000000000, -0.000000000000000000 ) ) ;
#182 = FACE_OUTER_BOUND ( 'NONE', #21, .T. ) ;
#183 = APPROVAL ( #227, 'NEURÈENÝ' ) ;
#184 = DIRECTION ( 'NONE',  ( 0.000000000000000000, 0.000000000000000000, 1.000000000000000000 ) ) ;
#185 = EDGE_CURVE ( 'NONE', #211, #200, #87, .T. ) ;
#186 = CARTESIAN_POINT ( 'NONE',  ( 0.000000000000000000, 0.000000000000000000, 1002.999999999999886 ) ) ;
#187 = DIRECTION ( 'NONE',  ( 0.000000000000000000, 0.000000000000000000, -1.000000000000000000 ) ) ;
#188 = AXIS2_PLACEMENT_3D ( 'NONE', #115, #136, #159 ) ;
#189 = CC_DESIGN_DATE_AND_TIME_ASSIGNMENT ( #17, #149, ( #3 ) ) ;
#190 = DIRECTION ( 'NONE',  ( -1.000000000000000000, 0.000000000000000000, 0.000000000000000000 ) ) ;
#191 =( NAMED_UNIT ( * ) SI_UNIT ( $, .STERADIAN. ) SOLID_ANGLE_UNIT ( ) );
#192 = MECHANICAL_CONTEXT ( 'NONE', #277, 'mechanical' ) ;
#193 = CC_DESIGN_PERSON_AND_ORGANIZATION_ASSIGNMENT ( #294, #246, ( #233 ) ) ;
#194 = EDGE_CURVE ( 'NONE', #150, #45, #127, .T. ) ;
#195 = PERSON_AND_ORGANIZATION ( #162, #18 ) ;
#196 = ORIENTED_EDGE ( 'NONE', *, *, #249, .F. ) ;
#197 = ORIENTED_EDGE ( 'NONE', *, *, #290, .F. ) ;
#198 = CC_DESIGN_APPROVAL ( #151, ( #233 ) ) ;
#199 = DIRECTION ( 'NONE',  ( 1.000000000000000000, 0.000000000000000000, 0.000000000000000000 ) ) ;
#200 = VERTEX_POINT ( 'NONE', #56 ) ;
#201 = EDGE_LOOP ( 'NONE', ( #175, #97, #130, #91 ) ) ;
#202 = VECTOR ( 'NONE', #145, 1000.000000000000000 ) ;
#203 = PRODUCT_DEFINITION_SHAPE ( 'NONE', 'NONE',  #3 ) ;
#204 = CARTESIAN_POINT ( 'NONE',  ( 0.000000000000000000, 0.000000000000000000, 3.000000000000000000 ) ) ;
#205 = EDGE_CURVE ( 'NONE', #45, #150, #173, .T. ) ;
#206 = EDGE_LOOP ( 'NONE', ( #172, #251 ) ) ;
#207 = DIRECTION ( 'NONE',  ( -0.000000000000000000, -0.000000000000000000, -1.000000000000000000 ) ) ;
#208 = VECTOR ( 'NONE', #285, 1000.000000000000000 ) ;
#209 = DIRECTION ( 'NONE',  ( 1.000000000000000000, 0.000000000000000000, 0.000000000000000000 ) ) ;
#210 = ADVANCED_FACE ( 'NONE', ( #215 ), #11, .F. ) ;
#211 = VERTEX_POINT ( 'NONE', #63 ) ;
#212 = ADVANCED_FACE ( 'NONE', ( #106 ), #35, .T. ) ;
#213 = DIRECTION ( 'NONE',  ( 0.000000000000000000, 0.000000000000000000, 1.000000000000000000 ) ) ;
#214 = CIRCLE ( 'NONE', #295, 2.750000000000000000 ) ;
#215 = FACE_OUTER_BOUND ( 'NONE', #223, .T. ) ;
#216 = LOCAL_TIME ( 11, 58, 40.00000000000000000, #46 ) ;
#217 = APPROVAL ( #291, 'NEURÈENÝ' ) ;
#218 =( LENGTH_UNIT ( ) NAMED_UNIT ( * ) SI_UNIT ( .MILLI., .METRE. ) );
#219 = CARTESIAN_POINT ( 'NONE',  ( -2.750000000000000000, 0.000000000000000000, 1002.999999999999886 ) ) ;
#220 = MANIFOLD_SOLID_BREP ( 'Zaoblit1', #137 ) ;
#221 = DIRECTION ( 'NONE',  ( 0.000000000000000000, 0.000000000000000000, 1.000000000000000000 ) ) ;
#222 = COORDINATED_UNIVERSAL_TIME_OFFSET ( 1, 0, .AHEAD. ) ;
#223 = EDGE_LOOP ( 'NONE', ( #301, #125, #67, #247 ) ) ;
#224 = AXIS2_PLACEMENT_3D ( 'NONE', #30, #184, #29 ) ;
#225 = APPROVAL_ROLE ( '' ) ;
#226 = ORIENTED_EDGE ( 'NONE', *, *, #290, .T. ) ;
#227 = APPROVAL_STATUS ( 'not_yet_approved' ) ;
#228 = ORIENTED_EDGE ( 'NONE', *, *, #237, .T. ) ;
#229 = CIRCLE ( 'NONE', #52, 2.949999999999999734 ) ;
#230 = APPROVAL_DATE_TIME ( #250, #151 ) ;
#231 = ORIENTED_EDGE ( 'NONE', *, *, #194, .T. ) ;
#232 = VERTEX_POINT ( 'NONE', #241 ) ;
#233 = PRODUCT_DEFINITION_FORMATION_WITH_SPECIFIED_SOURCE ( 'LIBOVOLNÝ', '', #282, .NOT_KNOWN. ) ;
#234 = DIRECTION ( 'NONE',  ( 1.000000000000000000, 0.000000000000000000, 0.000000000000000000 ) ) ;
#235 = FACE_OUTER_BOUND ( 'NONE', #206, .T. ) ;
#236 = DIRECTION ( 'NONE',  ( 0.000000000000000000, 0.000000000000000000, 1.000000000000000000 ) ) ;
#237 = EDGE_CURVE ( 'NONE', #232, #150, #260, .T. ) ;
#238 = AXIS2_PLACEMENT_3D ( 'NONE', #283, #265, #243 ) ;
#239 = PLANE ( 'NONE',  #62 ) ;
#240 = EDGE_CURVE ( 'NONE', #74, #153, #117, .T. ) ;
#241 = CARTESIAN_POINT ( 'NONE',  ( 5.000000000000000000, 6.123233995736766282E-16, 3.000000000000000000 ) ) ;
#242 = CARTESIAN_POINT ( 'NONE',  ( 0.000000000000000000, 0.000000000000000000, 0.000000000000000000 ) ) ;
#243 = DIRECTION ( 'NONE',  ( 1.000000000000000000, 0.000000000000000000, 0.000000000000000000 ) ) ;
#244 = DIRECTION ( 'NONE',  ( 1.000000000000000000, 0.000000000000000000, 0.000000000000000000 ) ) ;
#245 = CARTESIAN_POINT ( 'NONE',  ( 2.949999999999999734, 0.000000000000000000, 3.199999999999980638 ) ) ;
#246 = PERSON_AND_ORGANIZATION_ROLE ( 'design_supplier' ) ;
#247 = ORIENTED_EDGE ( 'NONE', *, *, #22, .F. ) ;
#248 = EDGE_LOOP ( 'NONE', ( #275, #134 ) ) ;
#249 = EDGE_CURVE ( 'NONE', #74, #211, #214, .T. ) ;
#250 = DATE_AND_TIME ( #299, #142 ) ;
#251 = ORIENTED_EDGE ( 'NONE', *, *, #249, .T. ) ;
#252 = APPROVAL_DATE_TIME ( #20, #217 ) ;
#253 = DIRECTION ( 'NONE',  ( -1.000000000000000000, 0.000000000000000000, 0.000000000000000000 ) ) ;
#254 = APPLICATION_CONTEXT ( 'configuration controlled 3d designs of mechanical parts and assemblies' ) ;
#255 = DIRECTION ( 'NONE',  ( -0.000000000000000000, -0.000000000000000000, -1.000000000000000000 ) ) ;
#256 = FACE_OUTER_BOUND ( 'NONE', #19, .T. ) ;
#257 = PLANE ( 'NONE',  #188 ) ;
#258 = CARTESIAN_POINT ( 'NONE',  ( 0.000000000000000000, 0.000000000000000000, 3.199999999999980638 ) ) ;
#259 = AXIS2_PLACEMENT_3D ( 'NONE', #33, #83, #36 ) ;
#260 = LINE ( 'NONE', #32, #208 ) ;
#261 = AXIS2_PLACEMENT_3D ( 'NONE', #101, #158, #253 ) ;
#262 = CARTESIAN_POINT ( 'NONE',  ( 0.000000000000000000, 0.000000000000000000, 1002.999999999999886 ) ) ;
#263 = CARTESIAN_POINT ( 'NONE',  ( -5.000000000000000000, 0.000000000000000000, 3.000000000000000000 ) ) ;
#264 = CARTESIAN_POINT ( 'NONE',  ( 0.000000000000000000, 0.000000000000000000, 3.000000000000000000 ) ) ;
#265 = DIRECTION ( 'NONE',  ( 0.000000000000000000, 0.000000000000000000, 1.000000000000000000 ) ) ;
#266 = AXIS2_PLACEMENT_3D ( 'NONE', #139, #281, #81 ) ;
#267 = PERSON_AND_ORGANIZATION ( #162, #18 ) ;
#268 = EDGE_CURVE ( 'NONE', #126, #304, #270, .T. ) ;
#269 = COORDINATED_UNIVERSAL_TIME_OFFSET ( 1, 0, .AHEAD. ) ;
#270 = CIRCLE ( 'NONE', #259, 2.949999999999999734 ) ;
#271 = APPLICATION_PROTOCOL_DEFINITION ( 'international standard', 'config_control_design', 1994, #277 ) ;
#272 = DESIGN_CONTEXT ( 'detailed design', #254, 'design' ) ;
#273 = ORIENTED_EDGE ( 'NONE', *, *, #185, .F. ) ;
#274 = EDGE_CURVE ( 'NONE', #211, #74, #4, .T. ) ;
#275 = ORIENTED_EDGE ( 'NONE', *, *, #205, .F. ) ;
#276 = DIRECTION ( 'NONE',  ( -1.000000000000000000, 1.224646799147353207E-16, 0.000000000000000000 ) ) ;
#277 = APPLICATION_CONTEXT ( 'configuration controlled 3d designs of mechanical parts and assemblies' ) ;
#278 = FACE_OUTER_BOUND ( 'NONE', #201, .T. ) ;
#279 = CIRCLE ( 'NONE', #166, 5.000000000000000000 ) ;
#280 = DIRECTION ( 'NONE',  ( -1.000000000000000000, 0.000000000000000000, 0.000000000000000000 ) ) ;
#281 = DIRECTION ( 'NONE',  ( 0.000000000000000000, 0.000000000000000000, 1.000000000000000000 ) ) ;
#282 = PRODUCT ( '68f5', '68f5', '', ( #192 ) ) ;
#283 = CARTESIAN_POINT ( 'NONE',  ( 0.000000000000000000, 0.000000000000000000, 3.199999999999980638 ) ) ;
#284 = DIRECTION ( 'NONE',  ( 0.000000000000000000, 0.000000000000000000, 1.000000000000000000 ) ) ;
#285 = DIRECTION ( 'NONE',  ( -0.000000000000000000, -0.000000000000000000, -1.000000000000000000 ) ) ;
#286 = EDGE_CURVE ( 'NONE', #153, #126, #104, .T. ) ;
#287 = AXIS2_PLACEMENT_3D ( 'NONE', #6, #167, #148 ) ;
#288 = DIRECTION ( 'NONE',  ( 1.000000000000000000, 0.000000000000000000, 0.000000000000000000 ) ) ;
#289 = AXIS2_PLACEMENT_3D ( 'NONE', #245, #105, #187 ) ;
#290 = EDGE_CURVE ( 'NONE', #232, #293, #279, .T. ) ;
#291 = APPROVAL_STATUS ( 'not_yet_approved' ) ;
#292 = COORDINATED_UNIVERSAL_TIME_OFFSET ( 1, 0, .AHEAD. ) ;
#293 = VERTEX_POINT ( 'NONE', #263 ) ;
#294 = PERSON_AND_ORGANIZATION ( #162, #18 ) ;
#295 = AXIS2_PLACEMENT_3D ( 'NONE', #262, #168, #244 ) ;
#296 = ORIENTED_EDGE ( 'NONE', *, *, #31, .T. ) ;
#297 = CALENDAR_DATE ( 2022, 20, 6 ) ;
#298 = ORIENTED_EDGE ( 'NONE', *, *, #144, .F. ) ;
#299 = CALENDAR_DATE ( 2022, 20, 6 ) ;
#300 = ORIENTED_EDGE ( 'NONE', *, *, #240, .F. ) ;
#301 = ORIENTED_EDGE ( 'NONE', *, *, #89, .F. ) ;
#302 = VECTOR ( 'NONE', #207, 1000.000000000000000 ) ;
#303 = FACE_OUTER_BOUND ( 'NONE', #103, .T. ) ;
#304 = VERTEX_POINT ( 'NONE', #84 ) ;
#305 = ORIENTED_EDGE ( 'NONE', *, *, #185, .T. ) ;
#306 = ORIENTED_EDGE ( 'NONE', *, *, #22, .T. ) ;
#307 = CIRCLE ( 'NONE', #100, 2.750000000000000000 ) ;
ENDSEC;
END-ISO-10303-21;
