ISO-10303-21;
HEADER;
FILE_DESCRIPTION (( 'STEP AP203' ),
    '1' );
FILE_NAME ('5fe4.STEP',
    '2022-06-20T09:43:48',
    ( '' ),
    ( '' ),
    'SwSTEP 2.0',
    'SolidWorks 2019',
    '' );
FILE_SCHEMA (( 'CONFIG_CONTROL_DESIGN' ));
ENDSEC;

DATA;
#1 = EDGE_LOOP ( 'NONE', ( #160, #32, #19, #254 ) ) ;
#2 = CARTESIAN_POINT ( 'NONE',  ( 0.000000000000000000, 0.000000000000000000, 130.0000000000000000 ) ) ;
#3 = CARTESIAN_POINT ( 'NONE',  ( 0.000000000000000000, 0.000000000000000000, 130.0000000000000000 ) ) ;
#4 = CARTESIAN_POINT ( 'NONE',  ( 0.000000000000000000, 0.000000000000000000, 5.199999999999996625 ) ) ;
#5 = DIRECTION ( 'NONE',  ( -1.000000000000000000, 0.000000000000000000, 0.000000000000000000 ) ) ;
#6 = CARTESIAN_POINT ( 'NONE',  ( 0.000000000000000000, 0.000000000000000000, 5.199999999999996625 ) ) ;
#7 = DIRECTION ( 'NONE',  ( 0.000000000000000000, 0.000000000000000000, 1.000000000000000000 ) ) ;
#8 = CYLINDRICAL_SURFACE ( 'NONE', #171, 4.500000000000000888 ) ;
#9 = ORGANIZATION ( 'NEURÈENÝ', 'NEURÈENÝ', '' ) ;
#10 = PERSON_AND_ORGANIZATION ( #247, #9 ) ;
#11 = APPROVAL_DATE_TIME ( #293, #194 ) ;
#12 = EDGE_CURVE ( 'NONE', #94, #191, #157, .T. ) ;
#13 = AXIS2_PLACEMENT_3D ( 'NONE', #216, #285, #5 ) ;
#14 = PERSON_AND_ORGANIZATION_ROLE ( 'design_owner' ) ;
#15 = AXIS2_PLACEMENT_3D ( 'NONE', #231, #54, #233 ) ;
#16 = DIRECTION ( 'NONE',  ( 1.224646799147353207E-16, 1.000000000000000000, -0.000000000000000000 ) ) ;
#17 = AXIS2_PLACEMENT_3D ( 'NONE', #213, #7, #79 ) ;
#18 = APPLICATION_PROTOCOL_DEFINITION ( 'international standard', 'config_control_design', 1994, #252 ) ;
#19 = ORIENTED_EDGE ( 'NONE', *, *, #117, .T. ) ;
#20 = DATE_AND_TIME ( #182, #172 ) ;
#21 = EDGE_LOOP ( 'NONE', ( #275, #271 ) ) ;
#22 = COORDINATED_UNIVERSAL_TIME_OFFSET ( 1, 0, .AHEAD. ) ;
#23 = LOCAL_TIME ( 11, 43, 48.00000000000000000, #108 ) ;
#24 = PERSON_AND_ORGANIZATION ( #247, #9 ) ;
#25 = EDGE_CURVE ( 'NONE', #68, #72, #158, .T. ) ;
#26 = CARTESIAN_POINT ( 'NONE',  ( 0.000000000000000000, 0.000000000000000000, 130.0000000000000000 ) ) ;
#27 = AXIS2_PLACEMENT_3D ( 'NONE', #175, #16, #201 ) ;
#28 = FACE_OUTER_BOUND ( 'NONE', #1, .T. ) ;
#29 = DIRECTION ( 'NONE',  ( 0.000000000000000000, -1.000000000000000000, 0.000000000000000000 ) ) ;
#30 = CARTESIAN_POINT ( 'NONE',  ( -7.000000000000000000, 0.000000000000000000, 5.000000000000000000 ) ) ;
#31 = EDGE_CURVE ( 'NONE', #251, #178, #257, .T. ) ;
#32 = ORIENTED_EDGE ( 'NONE', *, *, #217, .T. ) ;
#33 = ORIENTED_EDGE ( 'NONE', *, *, #168, .T. ) ;
#34 = CIRCLE ( 'NONE', #197, 4.500000000000000888 ) ;
#35 = CC_DESIGN_DATE_AND_TIME_ASSIGNMENT ( #87, #86, ( #131 ) ) ;
#36 = DIRECTION ( 'NONE',  ( 0.000000000000000000, 0.000000000000000000, 1.000000000000000000 ) ) ;
#37 = FACE_BOUND ( 'NONE', #302, .T. ) ;
#38 = AXIS2_PLACEMENT_3D ( 'NONE', #4, #52, #139 ) ;
#39 = APPROVAL_ROLE ( '' ) ;
#40 = CC_DESIGN_APPROVAL ( #226, ( #215 ) ) ;
#41 = ADVANCED_FACE ( 'NONE', ( #287 ), #193, .T. ) ;
#42 = CARTESIAN_POINT ( 'NONE',  ( 0.000000000000000000, 0.000000000000000000, 5.000000000000000000 ) ) ;
#43 = LINE ( 'NONE', #119, #260 ) ;
#44 = ORIENTED_EDGE ( 'NONE', *, *, #144, .F. ) ;
#45 = PERSON_AND_ORGANIZATION_ROLE ( 'creator' ) ;
#46 = DIRECTION ( 'NONE',  ( -1.000000000000000000, 0.000000000000000000, 0.000000000000000000 ) ) ;
#47 = FACE_OUTER_BOUND ( 'NONE', #121, .T. ) ;
#48 = SHAPE_DEFINITION_REPRESENTATION ( #288, #145 ) ;
#49 = CC_DESIGN_SECURITY_CLASSIFICATION ( #215, ( #57 ) ) ;
#50 = EDGE_CURVE ( 'NONE', #178, #191, #189, .T. ) ;
#51 = CARTESIAN_POINT ( 'NONE',  ( 4.500000000000000888, 5.510910596163089556E-16, 130.0000000000000000 ) ) ;
#52 = DIRECTION ( 'NONE',  ( 0.000000000000000000, 0.000000000000000000, 1.000000000000000000 ) ) ;
#53 = CARTESIAN_POINT ( 'NONE',  ( 7.000000000000000000, 8.572527594031473190E-16, 5.000000000000000000 ) ) ;
#54 = DIRECTION ( 'NONE',  ( 0.000000000000000000, 0.000000000000000000, 1.000000000000000000 ) ) ;
#55 = CC_DESIGN_PERSON_AND_ORGANIZATION_ASSIGNMENT ( #24, #140, ( #57 ) ) ;
#56 = ORIENTED_EDGE ( 'NONE', *, *, #272, .F. ) ;
#57 = PRODUCT_DEFINITION_FORMATION_WITH_SPECIFIED_SOURCE ( 'LIBOVOLNÝ', '', #263, .NOT_KNOWN. ) ;
#58 = FACE_OUTER_BOUND ( 'NONE', #186, .T. ) ;
#59 = DIRECTION ( 'NONE',  ( 0.000000000000000000, 0.000000000000000000, 1.000000000000000000 ) ) ;
#60 = DIRECTION ( 'NONE',  ( -0.000000000000000000, -0.000000000000000000, -1.000000000000000000 ) ) ;
#61 = VECTOR ( 'NONE', #122, 1000.000000000000000 ) ;
#62 = CARTESIAN_POINT ( 'NONE',  ( 4.700000000000000178, 0.000000000000000000, 4.999999999999998224 ) ) ;
#63 = ADVANCED_FACE ( 'NONE', ( #212 ), #77, .T. ) ;
#64 = DIRECTION ( 'NONE',  ( 0.000000000000000000, 0.000000000000000000, 1.000000000000000000 ) ) ;
#65 = APPROVAL_STATUS ( 'not_yet_approved' ) ;
#66 = CIRCLE ( 'NONE', #84, 4.500000000000000888 ) ;
#67 = APPROVAL_ROLE ( '' ) ;
#68 = VERTEX_POINT ( 'NONE', #238 ) ;
#69 = CARTESIAN_POINT ( 'NONE',  ( -4.700000000000000178, 5.755839955992559655E-16, 4.999999999999998224 ) ) ;
#70 = ADVANCED_FACE ( 'NONE', ( #28 ), #161, .T. ) ;
#71 = DIRECTION ( 'NONE',  ( 1.000000000000000000, 0.000000000000000000, 0.000000000000000000 ) ) ;
#72 = VERTEX_POINT ( 'NONE', #30 ) ;
#73 = CIRCLE ( 'NONE', #224, 4.700000000000000178 ) ;
#74 = EDGE_CURVE ( 'NONE', #72, #236, #208, .T. ) ;
#75 = ORIENTED_EDGE ( 'NONE', *, *, #31, .F. ) ;
#76 = EDGE_LOOP ( 'NONE', ( #306, #75, #210, #98 ) ) ;
#77 = PLANE ( 'NONE',  #280 ) ;
#78 = CARTESIAN_POINT ( 'NONE',  ( -4.500000000000000888, 0.000000000000000000, 5.199999999999996625 ) ) ;
#79 = DIRECTION ( 'NONE',  ( 1.000000000000000000, 0.000000000000000000, 0.000000000000000000 ) ) ;
#80 = DIRECTION ( 'NONE',  ( 0.000000000000000000, 0.000000000000000000, 1.000000000000000000 ) ) ;
#81 = CARTESIAN_POINT ( 'NONE',  ( 0.000000000000000000, 0.000000000000000000, 0.000000000000000000 ) ) ;
#82 = CARTESIAN_POINT ( 'NONE',  ( 0.000000000000000000, 0.000000000000000000, 5.000000000000000000 ) ) ;
#83 = CC_DESIGN_PERSON_AND_ORGANIZATION_ASSIGNMENT ( #128, #85, ( #131 ) ) ;
#84 = AXIS2_PLACEMENT_3D ( 'NONE', #2, #59, #106 ) ;
#85 = PERSON_AND_ORGANIZATION_ROLE ( 'creator' ) ;
#86 = DATE_TIME_ROLE ( 'creation_date' ) ;
#87 = DATE_AND_TIME ( #90, #23 ) ;
#88 = APPROVAL_PERSON_ORGANIZATION ( #204, #226, #114 ) ;
#89 = ORIENTED_EDGE ( 'NONE', *, *, #272, .T. ) ;
#90 = CALENDAR_DATE ( 2022, 20, 6 ) ;
#91 = DIRECTION ( 'NONE',  ( 0.000000000000000000, 0.000000000000000000, 1.000000000000000000 ) ) ;
#92 = ORIENTED_EDGE ( 'NONE', *, *, #104, .T. ) ;
#93 = APPROVAL_DATE_TIME ( #303, #226 ) ;
#94 = VERTEX_POINT ( 'NONE', #78 ) ;
#95 = CC_DESIGN_PERSON_AND_ORGANIZATION_ASSIGNMENT ( #273, #45, ( #57 ) ) ;
#96 = ADVANCED_FACE ( 'NONE', ( #58 ), #223, .F. ) ;
#97 = PERSON_AND_ORGANIZATION_ROLE ( 'classification_officer' ) ;
#98 = ORIENTED_EDGE ( 'NONE', *, *, #12, .T. ) ;
#99 = EDGE_LOOP ( 'NONE', ( #214, #135, #248, #56 ) ) ;
#100 = ORIENTED_EDGE ( 'NONE', *, *, #304, .F. ) ;
#101 = DIRECTION ( 'NONE',  ( 0.000000000000000000, 0.000000000000000000, -1.000000000000000000 ) ) ;
#102 = ORIENTED_EDGE ( 'NONE', *, *, #144, .T. ) ;
#103 = AXIS2_PLACEMENT_3D ( 'NONE', #259, #29, #101 ) ;
#104 = EDGE_CURVE ( 'NONE', #116, #141, #305, .T. ) ;
#105 = CARTESIAN_POINT ( 'NONE',  ( -7.000000000000000000, 0.000000000000000000, 5.000000000000000000 ) ) ;
#106 = DIRECTION ( 'NONE',  ( 1.000000000000000000, 0.000000000000000000, 0.000000000000000000 ) ) ;
#107 = DIRECTION ( 'NONE',  ( 0.000000000000000000, 0.000000000000000000, 1.000000000000000000 ) ) ;
#108 = COORDINATED_UNIVERSAL_TIME_OFFSET ( 1, 0, .AHEAD. ) ;
#109 = PLANE ( 'NONE',  #133 ) ;
#110 = APPLICATION_CONTEXT ( 'configuration controlled 3d designs of mechanical parts and assemblies' ) ;
#111 = DIRECTION ( 'NONE',  ( 1.000000000000000000, 0.000000000000000000, -0.000000000000000000 ) ) ;
#112 = EDGE_CURVE ( 'NONE', #94, #141, #155, .T. ) ;
#113 = ORIENTED_EDGE ( 'NONE', *, *, #117, .F. ) ;
#114 = APPROVAL_ROLE ( '' ) ;
#115 = CARTESIAN_POINT ( 'NONE',  ( 0.000000000000000000, 0.000000000000000000, 5.199999999999996625 ) ) ;
#116 = VERTEX_POINT ( 'NONE', #62 ) ;
#117 = EDGE_CURVE ( 'NONE', #262, #236, #235, .T. ) ;
#118 = ORIENTED_EDGE ( 'NONE', *, *, #25, .T. ) ;
#119 = CARTESIAN_POINT ( 'NONE',  ( -4.500000000000000888, 0.000000000000000000, 130.0000000000000000 ) ) ;
#120 = AXIS2_PLACEMENT_3D ( 'NONE', #202, #199, #130 ) ;
#121 = EDGE_LOOP ( 'NONE', ( #299, #100, #277, #102 ) ) ;
#122 = DIRECTION ( 'NONE',  ( -0.000000000000000000, -0.000000000000000000, -1.000000000000000000 ) ) ;
#123 = FACE_OUTER_BOUND ( 'NONE', #99, .T. ) ;
#124 = ORIENTED_EDGE ( 'NONE', *, *, #169, .F. ) ;
#125 = ADVANCED_FACE ( 'NONE', ( #219 ), #8, .T. ) ;
#126 = ORIENTED_EDGE ( 'NONE', *, *, #112, .F. ) ;
#127 = CARTESIAN_POINT ( 'NONE',  ( 0.000000000000000000, 0.000000000000000000, 0.000000000000000000 ) ) ;
#128 = PERSON_AND_ORGANIZATION ( #247, #9 ) ;
#129 =( NAMED_UNIT ( * ) SI_UNIT ( $, .STERADIAN. ) SOLID_ANGLE_UNIT ( ) );
#130 = DIRECTION ( 'NONE',  ( 1.000000000000000000, 0.000000000000000000, 0.000000000000000000 ) ) ;
#131 = PRODUCT_DEFINITION ( 'NEZNÁMÝ', '', #57, #200 ) ;
#132 = DIRECTION ( 'NONE',  ( 0.000000000000000000, 0.000000000000000000, 1.000000000000000000 ) ) ;
#133 = AXIS2_PLACEMENT_3D ( 'NONE', #42, #266, #111 ) ;
#134 = DATE_TIME_ROLE ( 'classification_date' ) ;
#135 = ORIENTED_EDGE ( 'NONE', *, *, #112, .T. ) ;
#136 = CC_DESIGN_DATE_AND_TIME_ASSIGNMENT ( #20, #134, ( #215 ) ) ;
#137 = CALENDAR_DATE ( 2022, 20, 6 ) ;
#138 = CARTESIAN_POINT ( 'NONE',  ( 4.500000000000000888, 5.510910596163089556E-16, 5.199999999999996625 ) ) ;
#139 = DIRECTION ( 'NONE',  ( 1.000000000000000000, 0.000000000000000000, 0.000000000000000000 ) ) ;
#140 = PERSON_AND_ORGANIZATION_ROLE ( 'design_supplier' ) ;
#141 = VERTEX_POINT ( 'NONE', #69 ) ;
#142 = CARTESIAN_POINT ( 'NONE',  ( 0.000000000000000000, 0.000000000000000000, 130.0000000000000000 ) ) ;
#143 = APPROVAL ( #269, 'NEURÈENÝ' ) ;
#144 = EDGE_CURVE ( 'NONE', #236, #262, #185, .T. ) ;
#145 = ADVANCED_BREP_SHAPE_REPRESENTATION ( '5fe4', ( #230, #281 ), #240 ) ;
#146 = DIRECTION ( 'NONE',  ( -0.000000000000000000, -0.000000000000000000, -1.000000000000000000 ) ) ;
#147 = AXIS2_PLACEMENT_3D ( 'NONE', #290, #36, #241 ) ;
#148 = DIRECTION ( 'NONE',  ( 1.000000000000000000, 0.000000000000000000, 0.000000000000000000 ) ) ;
#149 = DIRECTION ( 'NONE',  ( 1.000000000000000000, 0.000000000000000000, -0.000000000000000000 ) ) ;
#150 = VECTOR ( 'NONE', #205, 1000.000000000000000 ) ;
#151 = ADVANCED_FACE ( 'NONE', ( #47 ), #292, .T. ) ;
#152 = COORDINATED_UNIVERSAL_TIME_OFFSET ( 1, 0, .AHEAD. ) ;
#153 = COORDINATED_UNIVERSAL_TIME_OFFSET ( 1, 0, .AHEAD. ) ;
#154 = DIRECTION ( 'NONE',  ( -0.000000000000000000, -0.000000000000000000, -1.000000000000000000 ) ) ;
#155 = CIRCLE ( 'NONE', #27, 0.1999999999999996503 ) ;
#156 = CARTESIAN_POINT ( 'NONE',  ( 0.000000000000000000, 0.000000000000000000, 130.0000000000000000 ) ) ;
#157 = CIRCLE ( 'NONE', #38, 4.500000000000000888 ) ;
#158 = CIRCLE ( 'NONE', #15, 7.000000000000000000 ) ;
#159 = CARTESIAN_POINT ( 'NONE',  ( 4.500000000000000888, 5.510910596163089556E-16, 130.0000000000000000 ) ) ;
#160 = ORIENTED_EDGE ( 'NONE', *, *, #25, .F. ) ;
#161 = CYLINDRICAL_SURFACE ( 'NONE', #13, 7.000000000000000000 ) ;
#162 = APPROVAL_PERSON_ORGANIZATION ( #10, #194, #39 ) ;
#163 = DIRECTION ( 'NONE',  ( -1.000000000000000000, 0.000000000000000000, 0.000000000000000000 ) ) ;
#164 = LOCAL_TIME ( 11, 43, 48.00000000000000000, #22 ) ;
#165 = ORIENTED_EDGE ( 'NONE', *, *, #228, .T. ) ;
#166 = DIRECTION ( 'NONE',  ( 0.000000000000000000, 0.000000000000000000, 1.000000000000000000 ) ) ;
#167 = DIRECTION ( 'NONE',  ( 1.000000000000000000, 0.000000000000000000, 0.000000000000000000 ) ) ;
#168 = EDGE_CURVE ( 'NONE', #191, #94, #34, .T. ) ;
#169 = EDGE_CURVE ( 'NONE', #251, #94, #43, .T. ) ;
#170 = PERSON_AND_ORGANIZATION ( #247, #9 ) ;
#171 = AXIS2_PLACEMENT_3D ( 'NONE', #156, #274, #46 ) ;
#172 = LOCAL_TIME ( 11, 43, 48.00000000000000000, #300 ) ;
#173 = DIRECTION ( 'NONE',  ( 1.000000000000000000, 0.000000000000000000, 0.000000000000000000 ) ) ;
#174 = APPROVAL_DATE_TIME ( #246, #143 ) ;
#175 = CARTESIAN_POINT ( 'NONE',  ( -4.700000000000000178, 5.755839955992559655E-16, 5.199999999999996625 ) ) ;
#176 = APPROVAL_STATUS ( 'not_yet_approved' ) ;
#177 = DIRECTION ( 'NONE',  ( 1.000000000000000000, 0.000000000000000000, 0.000000000000000000 ) ) ;
#178 = VERTEX_POINT ( 'NONE', #51 ) ;
#179 = LOCAL_TIME ( 11, 43, 48.00000000000000000, #153 ) ;
#180 = AXIS2_PLACEMENT_3D ( 'NONE', #26, #60, #163 ) ;
#181 = CC_DESIGN_PERSON_AND_ORGANIZATION_ASSIGNMENT ( #267, #14, ( #263 ) ) ;
#182 = CALENDAR_DATE ( 2022, 20, 6 ) ;
#183 = LINE ( 'NONE', #53, #150 ) ;
#184 = AXIS2_PLACEMENT_3D ( 'NONE', #142, #80, #188 ) ;
#185 = CIRCLE ( 'NONE', #229, 7.000000000000000000 ) ;
#186 = EDGE_LOOP ( 'NONE', ( #126, #261, #89, #225 ) ) ;
#187 = DIRECTION ( 'NONE',  ( -0.000000000000000000, -0.000000000000000000, -1.000000000000000000 ) ) ;
#188 = DIRECTION ( 'NONE',  ( 1.000000000000000000, 0.000000000000000000, 0.000000000000000000 ) ) ;
#189 = LINE ( 'NONE', #159, #265 ) ;
#190 = CC_DESIGN_APPROVAL ( #194, ( #131 ) ) ;
#191 = VERTEX_POINT ( 'NONE', #138 ) ;
#192 = PLANE ( 'NONE',  #209 ) ;
#193 = CYLINDRICAL_SURFACE ( 'NONE', #180, 4.500000000000000888 ) ;
#194 = APPROVAL ( #65, 'NEURÈENÝ' ) ;
#195 = CARTESIAN_POINT ( 'NONE',  ( -4.500000000000000888, 0.000000000000000000, 130.0000000000000000 ) ) ;
#196 = DIRECTION ( 'NONE',  ( 1.000000000000000000, 0.000000000000000000, 0.000000000000000000 ) ) ;
#197 = AXIS2_PLACEMENT_3D ( 'NONE', #6, #107, #173 ) ;
#198 = CARTESIAN_POINT ( 'NONE',  ( 0.000000000000000000, 0.000000000000000000, 0.000000000000000000 ) ) ;
#199 = DIRECTION ( 'NONE',  ( 0.000000000000000000, 0.000000000000000000, 1.000000000000000000 ) ) ;
#200 = DESIGN_CONTEXT ( 'detailed design', #252, 'design' ) ;
#201 = DIRECTION ( 'NONE',  ( -1.000000000000000000, 1.224646799147353454E-16, 0.000000000000000000 ) ) ;
#202 = CARTESIAN_POINT ( 'NONE',  ( 0.000000000000000000, 0.000000000000000000, 5.000000000000000000 ) ) ;
#203 = EDGE_LOOP ( 'NONE', ( #44, #113 ) ) ;
#204 = PERSON_AND_ORGANIZATION ( #247, #9 ) ;
#205 = DIRECTION ( 'NONE',  ( -0.000000000000000000, -0.000000000000000000, -1.000000000000000000 ) ) ;
#206 = ORIENTED_EDGE ( 'NONE', *, *, #250, .F. ) ;
#207 = LOCAL_TIME ( 11, 43, 48.00000000000000000, #152 ) ;
#208 = LINE ( 'NONE', #105, #61 ) ;
#209 = AXIS2_PLACEMENT_3D ( 'NONE', #81, #166, #149 ) ;
#210 = ORIENTED_EDGE ( 'NONE', *, *, #169, .T. ) ;
#211 = FACE_OUTER_BOUND ( 'NONE', #203, .T. ) ;
#212 = FACE_OUTER_BOUND ( 'NONE', #21, .T. ) ;
#213 = CARTESIAN_POINT ( 'NONE',  ( 0.000000000000000000, 0.000000000000000000, 5.199999999999996625 ) ) ;
#214 = ORIENTED_EDGE ( 'NONE', *, *, #12, .F. ) ;
#215 = SECURITY_CLASSIFICATION ( '', '', #276 ) ;
#216 = CARTESIAN_POINT ( 'NONE',  ( 0.000000000000000000, 0.000000000000000000, 5.000000000000000000 ) ) ;
#217 = EDGE_CURVE ( 'NONE', #68, #262, #183, .T. ) ;
#218 = DIRECTION ( 'NONE',  ( -0.000000000000000000, -0.000000000000000000, -1.000000000000000000 ) ) ;
#219 = FACE_OUTER_BOUND ( 'NONE', #76, .T. ) ;
#220 = CC_DESIGN_APPROVAL ( #143, ( #57 ) ) ;
#221 = APPLICATION_PROTOCOL_DEFINITION ( 'international standard', 'config_control_design', 1994, #110 ) ;
#222 = FACE_OUTER_BOUND ( 'NONE', #227, .T. ) ;
#223 = TOROIDAL_SURFACE ( 'NONE', #264, 4.700000000000000178, 0.2000000000000000111 ) ;
#224 = AXIS2_PLACEMENT_3D ( 'NONE', #256, #289, #148 ) ;
#225 = ORIENTED_EDGE ( 'NONE', *, *, #228, .F. ) ;
#226 = APPROVAL ( #176, 'NEURÈENÝ' ) ;
#227 = EDGE_LOOP ( 'NONE', ( #282, #118 ) ) ;
#228 = EDGE_CURVE ( 'NONE', #141, #116, #73, .T. ) ;
#229 = AXIS2_PLACEMENT_3D ( 'NONE', #127, #91, #177 ) ;
#230 = MANIFOLD_SOLID_BREP ( 'Zaoblit1', #295 ) ;
#231 = CARTESIAN_POINT ( 'NONE',  ( 0.000000000000000000, 0.000000000000000000, 5.000000000000000000 ) ) ;
#232 = PERSON_AND_ORGANIZATION ( #247, #9 ) ;
#233 = DIRECTION ( 'NONE',  ( 1.000000000000000000, 0.000000000000000000, 0.000000000000000000 ) ) ;
#234 = CARTESIAN_POINT ( 'NONE',  ( 7.000000000000000000, 8.572527594031473190E-16, 0.000000000000000000 ) ) ;
#235 = CIRCLE ( 'NONE', #147, 7.000000000000000000 ) ;
#236 = VERTEX_POINT ( 'NONE', #242 ) ;
#237 = CARTESIAN_POINT ( 'NONE',  ( 0.000000000000000000, 0.000000000000000000, 5.000000000000000000 ) ) ;
#238 = CARTESIAN_POINT ( 'NONE',  ( 7.000000000000000000, 8.572527594031473190E-16, 5.000000000000000000 ) ) ;
#239 = ADVANCED_FACE ( 'NONE', ( #123 ), #253, .F. ) ;
#240 =( GEOMETRIC_REPRESENTATION_CONTEXT ( 3 ) GLOBAL_UNCERTAINTY_ASSIGNED_CONTEXT ( ( #245 ) ) GLOBAL_UNIT_ASSIGNED_CONTEXT ( ( #294, #244, #129 ) ) REPRESENTATION_CONTEXT ( 'NONE', 'WORKASPACE' ) );
#241 = DIRECTION ( 'NONE',  ( 1.000000000000000000, 0.000000000000000000, 0.000000000000000000 ) ) ;
#242 = CARTESIAN_POINT ( 'NONE',  ( -7.000000000000000000, 0.000000000000000000, 0.000000000000000000 ) ) ;
#243 = CALENDAR_DATE ( 2022, 20, 6 ) ;
#244 =( NAMED_UNIT ( * ) PLANE_ANGLE_UNIT ( ) SI_UNIT ( $, .RADIAN. ) );
#245 = UNCERTAINTY_MEASURE_WITH_UNIT (LENGTH_MEASURE( 1.000000000000000082E-05 ), #294, 'distance_accuracy_value', 'NONE');
#246 = DATE_AND_TIME ( #249, #207 ) ;
#247 = PERSON ( 'NEURÈENÝ', 'NEURÈENÝ', 'NEURÈENÝ', ('NEURÈENÝ'), ('NEURÈENÝ'), ('NEURÈENÝ') ) ;
#248 = ORIENTED_EDGE ( 'NONE', *, *, #104, .F. ) ;
#249 = CALENDAR_DATE ( 2022, 20, 6 ) ;
#250 = EDGE_CURVE ( 'NONE', #178, #251, #66, .T. ) ;
#251 = VERTEX_POINT ( 'NONE', #195 ) ;
#252 = APPLICATION_CONTEXT ( 'configuration controlled 3d designs of mechanical parts and assemblies' ) ;
#253 = TOROIDAL_SURFACE ( 'NONE', #17, 4.700000000000000178, 0.2000000000000000111 ) ;
#254 = ORIENTED_EDGE ( 'NONE', *, *, #74, .F. ) ;
#255 = EDGE_LOOP ( 'NONE', ( #206, #301, #33, #124 ) ) ;
#256 = CARTESIAN_POINT ( 'NONE',  ( 0.000000000000000000, 0.000000000000000000, 5.000000000000000000 ) ) ;
#257 = CIRCLE ( 'NONE', #184, 4.500000000000000888 ) ;
#258 = DIRECTION ( 'NONE',  ( 1.000000000000000000, 0.000000000000000000, -0.000000000000000000 ) ) ;
#259 = CARTESIAN_POINT ( 'NONE',  ( 4.700000000000000178, 0.000000000000000000, 5.199999999999996625 ) ) ;
#260 = VECTOR ( 'NONE', #187, 1000.000000000000000 ) ;
#261 = ORIENTED_EDGE ( 'NONE', *, *, #168, .F. ) ;
#262 = VERTEX_POINT ( 'NONE', #234 ) ;
#263 = PRODUCT ( '5fe4', '5fe4', '', ( #298 ) ) ;
#264 = AXIS2_PLACEMENT_3D ( 'NONE', #115, #64, #71 ) ;
#265 = VECTOR ( 'NONE', #146, 1000.000000000000000 ) ;
#266 = DIRECTION ( 'NONE',  ( 0.000000000000000000, 0.000000000000000000, 1.000000000000000000 ) ) ;
#267 = PERSON_AND_ORGANIZATION ( #247, #9 ) ;
#268 = APPROVAL_PERSON_ORGANIZATION ( #170, #143, #67 ) ;
#269 = APPROVAL_STATUS ( 'not_yet_approved' ) ;
#270 = DIRECTION ( 'NONE',  ( -1.000000000000000000, 0.000000000000000000, 0.000000000000000000 ) ) ;
#271 = ORIENTED_EDGE ( 'NONE', *, *, #250, .T. ) ;
#272 = EDGE_CURVE ( 'NONE', #191, #116, #307, .T. ) ;
#273 = PERSON_AND_ORGANIZATION ( #247, #9 ) ;
#274 = DIRECTION ( 'NONE',  ( -0.000000000000000000, -0.000000000000000000, -1.000000000000000000 ) ) ;
#275 = ORIENTED_EDGE ( 'NONE', *, *, #31, .T. ) ;
#276 = SECURITY_CLASSIFICATION_LEVEL ( 'unclassified' ) ;
#277 = ORIENTED_EDGE ( 'NONE', *, *, #74, .T. ) ;
#278 = CIRCLE ( 'NONE', #120, 7.000000000000000000 ) ;
#279 = PRODUCT_RELATED_PRODUCT_CATEGORY ( 'detail', '', ( #263 ) ) ;
#280 = AXIS2_PLACEMENT_3D ( 'NONE', #3, #284, #258 ) ;
#281 = AXIS2_PLACEMENT_3D ( 'NONE', #198, #132, #167 ) ;
#282 = ORIENTED_EDGE ( 'NONE', *, *, #304, .T. ) ;
#283 = CC_DESIGN_PERSON_AND_ORGANIZATION_ASSIGNMENT ( #232, #97, ( #215 ) ) ;
#284 = DIRECTION ( 'NONE',  ( 0.000000000000000000, 0.000000000000000000, 1.000000000000000000 ) ) ;
#285 = DIRECTION ( 'NONE',  ( -0.000000000000000000, -0.000000000000000000, -1.000000000000000000 ) ) ;
#286 = ADVANCED_FACE ( 'NONE', ( #211 ), #192, .F. ) ;
#287 = FACE_OUTER_BOUND ( 'NONE', #255, .T. ) ;
#288 = PRODUCT_DEFINITION_SHAPE ( 'NONE', 'NONE',  #131 ) ;
#289 = DIRECTION ( 'NONE',  ( -0.000000000000000000, -0.000000000000000000, -1.000000000000000000 ) ) ;
#290 = CARTESIAN_POINT ( 'NONE',  ( 0.000000000000000000, 0.000000000000000000, 0.000000000000000000 ) ) ;
#291 = AXIS2_PLACEMENT_3D ( 'NONE', #237, #154, #196 ) ;
#292 = CYLINDRICAL_SURFACE ( 'NONE', #297, 7.000000000000000000 ) ;
#293 = DATE_AND_TIME ( #243, #179 ) ;
#294 =( LENGTH_UNIT ( ) NAMED_UNIT ( * ) SI_UNIT ( .MILLI., .METRE. ) );
#295 = CLOSED_SHELL ( 'NONE', ( #239, #41, #70, #151, #296, #286, #125, #63, #96 ) ) ;
#296 = ADVANCED_FACE ( 'NONE', ( #37, #222 ), #109, .T. ) ;
#297 = AXIS2_PLACEMENT_3D ( 'NONE', #82, #218, #270 ) ;
#298 = MECHANICAL_CONTEXT ( 'NONE', #110, 'mechanical' ) ;
#299 = ORIENTED_EDGE ( 'NONE', *, *, #217, .F. ) ;
#300 = COORDINATED_UNIVERSAL_TIME_OFFSET ( 1, 0, .AHEAD. ) ;
#301 = ORIENTED_EDGE ( 'NONE', *, *, #50, .T. ) ;
#302 = EDGE_LOOP ( 'NONE', ( #92, #165 ) ) ;
#303 = DATE_AND_TIME ( #137, #164 ) ;
#304 = EDGE_CURVE ( 'NONE', #72, #68, #278, .T. ) ;
#305 = CIRCLE ( 'NONE', #291, 4.700000000000000178 ) ;
#306 = ORIENTED_EDGE ( 'NONE', *, *, #50, .F. ) ;
#307 = CIRCLE ( 'NONE', #103, 0.1999999999999996503 ) ;
ENDSEC;
END-ISO-10303-21;
