ISO-10303-21;
HEADER;
FILE_DESCRIPTION (( 'STEP AP203' ),
    '1' );
FILE_NAME ('d16d.STEP',
    '2022-06-20T09:58:57',
    ( '' ),
    ( '' ),
    'SwSTEP 2.0',
    'SolidWorks 2019',
    '' );
FILE_SCHEMA (( 'CONFIG_CONTROL_DESIGN' ));
ENDSEC;

DATA;
#1 = DIRECTION ( 'NONE',  ( 0.000000000000000000, 0.000000000000000000, 1.000000000000000000 ) ) ;
#2 = ORIENTED_EDGE ( 'NONE', *, *, #144, .T. ) ;
#3 = EDGE_CURVE ( 'NONE', #94, #24, #96, .T. ) ;
#4 = CARTESIAN_POINT ( 'NONE',  ( 0.000000000000000000, 0.000000000000000000, 633.0000000000000000 ) ) ;
#5 = CIRCLE ( 'NONE', #60, 2.949999999999999734 ) ;
#6 = DIRECTION ( 'NONE',  ( 1.000000000000000000, 0.000000000000000000, 0.000000000000000000 ) ) ;
#7 = CARTESIAN_POINT ( 'NONE',  ( 0.000000000000000000, 0.000000000000000000, 3.199999999999980638 ) ) ;
#8 = ADVANCED_FACE ( 'NONE', ( #28 ), #237, .T. ) ;
#9 = CC_DESIGN_PERSON_AND_ORGANIZATION_ASSIGNMENT ( #123, #101, ( #95 ) ) ;
#10 = PERSON_AND_ORGANIZATION ( #275, #88 ) ;
#11 = CIRCLE ( 'NONE', #251, 0.2000000000000000944 ) ;
#12 = LOCAL_TIME ( 11, 58, 57.00000000000000000, #272 ) ;
#13 = MECHANICAL_CONTEXT ( 'NONE', #106, 'mechanical' ) ;
#14 = PLANE ( 'NONE',  #111 ) ;
#15 = EDGE_CURVE ( 'NONE', #249, #79, #296, .T. ) ;
#16 = PERSON_AND_ORGANIZATION ( #275, #88 ) ;
#17 = CARTESIAN_POINT ( 'NONE',  ( -5.000000000000000000, 0.000000000000000000, 0.000000000000000000 ) ) ;
#18 = EDGE_LOOP ( 'NONE', ( #165, #21, #126, #157 ) ) ;
#19 = EDGE_CURVE ( 'NONE', #256, #279, #145, .T. ) ;
#20 = CARTESIAN_POINT ( 'NONE',  ( 0.000000000000000000, 0.000000000000000000, 0.000000000000000000 ) ) ;
#21 = ORIENTED_EDGE ( 'NONE', *, *, #231, .F. ) ;
#22 = AXIS2_PLACEMENT_3D ( 'NONE', #192, #1, #268 ) ;
#23 = CYLINDRICAL_SURFACE ( 'NONE', #269, 2.750000000000000000 ) ;
#24 = VERTEX_POINT ( 'NONE', #273 ) ;
#25 = EDGE_CURVE ( 'NONE', #94, #249, #263, .T. ) ;
#26 = ORIENTED_EDGE ( 'NONE', *, *, #161, .T. ) ;
#27 = AXIS2_PLACEMENT_3D ( 'NONE', #240, #243, #294 ) ;
#28 = FACE_OUTER_BOUND ( 'NONE', #285, .T. ) ;
#29 = APPROVAL ( #219, 'NEURÈENÝ' ) ;
#30 = EDGE_LOOP ( 'NONE', ( #73, #51, #183, #185 ) ) ;
#31 = DIRECTION ( 'NONE',  ( -0.000000000000000000, -0.000000000000000000, -1.000000000000000000 ) ) ;
#32 = DIRECTION ( 'NONE',  ( 0.000000000000000000, 0.000000000000000000, 1.000000000000000000 ) ) ;
#33 = CYLINDRICAL_SURFACE ( 'NONE', #158, 5.000000000000000000 ) ;
#34 = CARTESIAN_POINT ( 'NONE',  ( -2.949999999999999734, 3.612708057484692097E-16, 3.199999999999980638 ) ) ;
#35 = EDGE_CURVE ( 'NONE', #79, #154, #56, .T. ) ;
#36 = COORDINATED_UNIVERSAL_TIME_OFFSET ( 1, 0, .AHEAD. ) ;
#37 =( LENGTH_UNIT ( ) NAMED_UNIT ( * ) SI_UNIT ( .MILLI., .METRE. ) );
#38 = VECTOR ( 'NONE', #184, 1000.000000000000000 ) ;
#39 = ADVANCED_BREP_SHAPE_REPRESENTATION ( 'd16d', ( #115, #215 ), #177 ) ;
#40 = DIRECTION ( 'NONE',  ( 0.000000000000000000, 0.000000000000000000, 1.000000000000000000 ) ) ;
#41 = SECURITY_CLASSIFICATION_LEVEL ( 'unclassified' ) ;
#42 = VERTEX_POINT ( 'NONE', #102 ) ;
#43 = DIRECTION ( 'NONE',  ( 0.000000000000000000, 0.000000000000000000, -1.000000000000000000 ) ) ;
#44 = AXIS2_PLACEMENT_3D ( 'NONE', #132, #110, #229 ) ;
#45 = PERSON_AND_ORGANIZATION_ROLE ( 'classification_officer' ) ;
#46 = DIRECTION ( 'NONE',  ( -1.000000000000000000, 0.000000000000000000, 0.000000000000000000 ) ) ;
#47 = PERSON_AND_ORGANIZATION_ROLE ( 'creator' ) ;
#48 = DIRECTION ( 'NONE',  ( 1.000000000000000000, 0.000000000000000000, 0.000000000000000000 ) ) ;
#49 = ORIENTED_EDGE ( 'NONE', *, *, #259, .F. ) ;
#50 = APPROVAL ( #226, 'NEURÈENÝ' ) ;
#51 = ORIENTED_EDGE ( 'NONE', *, *, #35, .T. ) ;
#52 = DIRECTION ( 'NONE',  ( 1.000000000000000000, 0.000000000000000000, 0.000000000000000000 ) ) ;
#53 = ADVANCED_FACE ( 'NONE', ( #293, #224 ), #14, .T. ) ;
#54 = ORIENTED_EDGE ( 'NONE', *, *, #19, .T. ) ;
#55 = AXIS2_PLACEMENT_3D ( 'NONE', #232, #75, #258 ) ;
#56 = CIRCLE ( 'NONE', #221, 0.2000000000000000944 ) ;
#57 = CALENDAR_DATE ( 2022, 20, 6 ) ;
#58 = ORIENTED_EDGE ( 'NONE', *, *, #3, .T. ) ;
#59 = EDGE_CURVE ( 'NONE', #79, #24, #124, .T. ) ;
#60 = AXIS2_PLACEMENT_3D ( 'NONE', #190, #238, #288 ) ;
#61 = CC_DESIGN_APPROVAL ( #50, ( #89 ) ) ;
#62 = APPROVAL_DATE_TIME ( #197, #142 ) ;
#63 = AXIS2_PLACEMENT_3D ( 'NONE', #227, #69, #46 ) ;
#64 = DESIGN_CONTEXT ( 'detailed design', #153, 'design' ) ;
#65 = FACE_OUTER_BOUND ( 'NONE', #253, .T. ) ;
#66 = ORIENTED_EDGE ( 'NONE', *, *, #76, .F. ) ;
#67 = ORIENTED_EDGE ( 'NONE', *, *, #248, .T. ) ;
#68 = APPROVAL_DATE_TIME ( #277, #50 ) ;
#69 = DIRECTION ( 'NONE',  ( -0.000000000000000000, -0.000000000000000000, -1.000000000000000000 ) ) ;
#70 = CARTESIAN_POINT ( 'NONE',  ( 2.750000000000000000, 3.367778697655221012E-16, 633.0000000000000000 ) ) ;
#71 = EDGE_LOOP ( 'NONE', ( #66, #77, #262, #26 ) ) ;
#72 = CARTESIAN_POINT ( 'NONE',  ( 5.000000000000000000, 6.123233995736766282E-16, 3.000000000000000000 ) ) ;
#73 = ORIENTED_EDGE ( 'NONE', *, *, #59, .F. ) ;
#74 = CC_DESIGN_PERSON_AND_ORGANIZATION_ASSIGNMENT ( #159, #47, ( #104 ) ) ;
#75 = DIRECTION ( 'NONE',  ( 0.000000000000000000, 0.000000000000000000, 1.000000000000000000 ) ) ;
#76 = EDGE_CURVE ( 'NONE', #279, #188, #202, .T. ) ;
#77 = ORIENTED_EDGE ( 'NONE', *, *, #19, .F. ) ;
#78 = CARTESIAN_POINT ( 'NONE',  ( -2.750000000000000000, 0.000000000000000000, 633.0000000000000000 ) ) ;
#79 = VERTEX_POINT ( 'NONE', #301 ) ;
#80 = CIRCLE ( 'NONE', #44, 5.000000000000000000 ) ;
#81 = CALENDAR_DATE ( 2022, 20, 6 ) ;
#82 = EDGE_LOOP ( 'NONE', ( #2, #67 ) ) ;
#83 = APPROVAL_PERSON_ORGANIZATION ( #10, #142, #103 ) ;
#84 = COORDINATED_UNIVERSAL_TIME_OFFSET ( 1, 0, .AHEAD. ) ;
#85 = PERSON_AND_ORGANIZATION ( #275, #88 ) ;
#86 = ADVANCED_FACE ( 'NONE', ( #182 ), #247, .T. ) ;
#87 = APPROVAL_PERSON_ORGANIZATION ( #16, #50, #125 ) ;
#88 = ORGANIZATION ( 'NEURÈENÝ', 'NEURÈENÝ', '' ) ;
#89 = SECURITY_CLASSIFICATION ( '', '', #41 ) ;
#90 = EDGE_CURVE ( 'NONE', #279, #256, #245, .T. ) ;
#91 = CARTESIAN_POINT ( 'NONE',  ( 0.000000000000000000, 0.000000000000000000, 3.000000000000000000 ) ) ;
#92 = DIRECTION ( 'NONE',  ( -0.000000000000000000, -0.000000000000000000, -1.000000000000000000 ) ) ;
#93 = DIRECTION ( 'NONE',  ( 0.000000000000000000, 0.000000000000000000, 1.000000000000000000 ) ) ;
#94 = VERTEX_POINT ( 'NONE', #70 ) ;
#95 = PRODUCT ( 'd16d', 'd16d', '', ( #13 ) ) ;
#96 = LINE ( 'NONE', #137, #287 ) ;
#97 = CARTESIAN_POINT ( 'NONE',  ( -5.000000000000000000, 0.000000000000000000, 3.000000000000000000 ) ) ;
#98 = ORIENTED_EDGE ( 'NONE', *, *, #59, .T. ) ;
#99 = DIRECTION ( 'NONE',  ( 0.000000000000000000, 0.000000000000000000, 1.000000000000000000 ) ) ;
#100 = CC_DESIGN_DATE_AND_TIME_ASSIGNMENT ( #228, #303, ( #89 ) ) ;
#101 = PERSON_AND_ORGANIZATION_ROLE ( 'design_owner' ) ;
#102 = CARTESIAN_POINT ( 'NONE',  ( 2.949999999999999734, 0.000000000000000000, 2.999999999999990674 ) ) ;
#103 = APPROVAL_ROLE ( '' ) ;
#104 = PRODUCT_DEFINITION_FORMATION_WITH_SPECIFIED_SOURCE ( 'LIBOVOLNÝ', '', #95, .NOT_KNOWN. ) ;
#105 = APPLICATION_PROTOCOL_DEFINITION ( 'international standard', 'config_control_design', 1994, #153 ) ;
#106 = APPLICATION_CONTEXT ( 'configuration controlled 3d designs of mechanical parts and assemblies' ) ;
#107 = AXIS2_PLACEMENT_3D ( 'NONE', #148, #270, #241 ) ;
#108 = CARTESIAN_POINT ( 'NONE',  ( 0.000000000000000000, 0.000000000000000000, 3.000000000000000000 ) ) ;
#109 = DIRECTION ( 'NONE',  ( 1.000000000000000000, 0.000000000000000000, 0.000000000000000000 ) ) ;
#110 = DIRECTION ( 'NONE',  ( 0.000000000000000000, 0.000000000000000000, 1.000000000000000000 ) ) ;
#111 = AXIS2_PLACEMENT_3D ( 'NONE', #150, #32, #119 ) ;
#112 = EDGE_LOOP ( 'NONE', ( #140, #58, #234, #163 ) ) ;
#113 = DIRECTION ( 'NONE',  ( 0.000000000000000000, 0.000000000000000000, 1.000000000000000000 ) ) ;
#114 = ADVANCED_FACE ( 'NONE', ( #65 ), #306, .T. ) ;
#115 = MANIFOLD_SOLID_BREP ( 'Zaoblit1', #205 ) ;
#116 = EDGE_LOOP ( 'NONE', ( #178, #239 ) ) ;
#117 = FACE_OUTER_BOUND ( 'NONE', #112, .T. ) ;
#118 = EDGE_CURVE ( 'NONE', #256, #135, #160, .T. ) ;
#119 = DIRECTION ( 'NONE',  ( 1.000000000000000000, 0.000000000000000000, -0.000000000000000000 ) ) ;
#120 = CARTESIAN_POINT ( 'NONE',  ( 5.000000000000000000, 6.123233995736766282E-16, 3.000000000000000000 ) ) ;
#121 = DATE_TIME_ROLE ( 'creation_date' ) ;
#122 = CARTESIAN_POINT ( 'NONE',  ( -2.750000000000000000, 0.000000000000000000, 633.0000000000000000 ) ) ;
#123 = PERSON_AND_ORGANIZATION ( #275, #88 ) ;
#124 = CIRCLE ( 'NONE', #305, 2.750000000000000000 ) ;
#125 = APPROVAL_ROLE ( '' ) ;
#126 = ORIENTED_EDGE ( 'NONE', *, *, #164, .T. ) ;
#127 = CARTESIAN_POINT ( 'NONE',  ( 5.000000000000000000, 6.123233995736766282E-16, 0.000000000000000000 ) ) ;
#128 = AXIS2_PLACEMENT_3D ( 'NONE', #191, #290, #267 ) ;
#129 = PERSON_AND_ORGANIZATION_ROLE ( 'design_supplier' ) ;
#130 = CARTESIAN_POINT ( 'NONE',  ( -2.949999999999999734, 3.612708057484692097E-16, 2.999999999999990674 ) ) ;
#131 = CALENDAR_DATE ( 2022, 20, 6 ) ;
#132 = CARTESIAN_POINT ( 'NONE',  ( 0.000000000000000000, 0.000000000000000000, 0.000000000000000000 ) ) ;
#133 = LOCAL_TIME ( 11, 58, 57.00000000000000000, #195 ) ;
#134 = ADVANCED_FACE ( 'NONE', ( #298 ), #136, .F. ) ;
#135 = VERTEX_POINT ( 'NONE', #17 ) ;
#136 = TOROIDAL_SURFACE ( 'NONE', #173, 2.949999999999999734, 0.2000000000000000111 ) ;
#137 = CARTESIAN_POINT ( 'NONE',  ( 2.750000000000000000, 3.367778697655221012E-16, 633.0000000000000000 ) ) ;
#138 = CC_DESIGN_SECURITY_CLASSIFICATION ( #89, ( #104 ) ) ;
#139 = DIRECTION ( 'NONE',  ( 1.000000000000000000, 0.000000000000000000, 0.000000000000000000 ) ) ;
#140 = ORIENTED_EDGE ( 'NONE', *, *, #25, .F. ) ;
#141 = APPROVAL_STATUS ( 'not_yet_approved' ) ;
#142 = APPROVAL ( #141, 'NEURÈENÝ' ) ;
#143 = ORIENTED_EDGE ( 'NONE', *, *, #90, .F. ) ;
#144 = EDGE_CURVE ( 'NONE', #42, #154, #304, .T. ) ;
#145 = CIRCLE ( 'NONE', #27, 5.000000000000000000 ) ;
#146 =( NAMED_UNIT ( * ) PLANE_ANGLE_UNIT ( ) SI_UNIT ( $, .RADIAN. ) );
#147 = DIRECTION ( 'NONE',  ( 1.224646799147353207E-16, 1.000000000000000000, -0.000000000000000000 ) ) ;
#148 = CARTESIAN_POINT ( 'NONE',  ( 0.000000000000000000, 0.000000000000000000, 3.199999999999980638 ) ) ;
#149 = DIRECTION ( 'NONE',  ( 0.000000000000000000, 0.000000000000000000, 1.000000000000000000 ) ) ;
#150 = CARTESIAN_POINT ( 'NONE',  ( 0.000000000000000000, 0.000000000000000000, 3.000000000000000000 ) ) ;
#151 = CC_DESIGN_PERSON_AND_ORGANIZATION_ASSIGNMENT ( #252, #45, ( #89 ) ) ;
#152 = DIRECTION ( 'NONE',  ( -0.000000000000000000, -0.000000000000000000, -1.000000000000000000 ) ) ;
#153 = APPLICATION_CONTEXT ( 'configuration controlled 3d designs of mechanical parts and assemblies' ) ;
#154 = VERTEX_POINT ( 'NONE', #130 ) ;
#155 = UNCERTAINTY_MEASURE_WITH_UNIT (LENGTH_MEASURE( 1.000000000000000082E-05 ), #37, 'distance_accuracy_value', 'NONE');
#156 = CARTESIAN_POINT ( 'NONE',  ( 0.000000000000000000, 0.000000000000000000, 633.0000000000000000 ) ) ;
#157 = ORIENTED_EDGE ( 'NONE', *, *, #248, .F. ) ;
#158 = AXIS2_PLACEMENT_3D ( 'NONE', #265, #31, #295 ) ;
#159 = PERSON_AND_ORGANIZATION ( #275, #88 ) ;
#160 = LINE ( 'NONE', #179, #276 ) ;
#161 = EDGE_CURVE ( 'NONE', #135, #188, #80, .T. ) ;
#162 = DIRECTION ( 'NONE',  ( -0.000000000000000000, -0.000000000000000000, -1.000000000000000000 ) ) ;
#163 = ORIENTED_EDGE ( 'NONE', *, *, #15, .F. ) ;
#164 = EDGE_CURVE ( 'NONE', #24, #42, #11, .T. ) ;
#165 = ORIENTED_EDGE ( 'NONE', *, *, #35, .F. ) ;
#166 = DIRECTION ( 'NONE',  ( -0.000000000000000000, -0.000000000000000000, -1.000000000000000000 ) ) ;
#167 = AXIS2_PLACEMENT_3D ( 'NONE', #257, #93, #52 ) ;
#168 = CC_DESIGN_DATE_AND_TIME_ASSIGNMENT ( #172, #121, ( #207 ) ) ;
#169 = LOCAL_TIME ( 11, 58, 57.00000000000000000, #36 ) ;
#170 = PERSON_AND_ORGANIZATION_ROLE ( 'creator' ) ;
#171 = EDGE_LOOP ( 'NONE', ( #143, #213, #212, #210 ) ) ;
#172 = DATE_AND_TIME ( #57, #194 ) ;
#173 = AXIS2_PLACEMENT_3D ( 'NONE', #255, #40, #48 ) ;
#174 = VECTOR ( 'NONE', #201, 1000.000000000000000 ) ;
#175 = CARTESIAN_POINT ( 'NONE',  ( 0.000000000000000000, 0.000000000000000000, 0.000000000000000000 ) ) ;
#176 = CARTESIAN_POINT ( 'NONE',  ( 0.000000000000000000, 0.000000000000000000, 633.0000000000000000 ) ) ;
#177 =( GEOMETRIC_REPRESENTATION_CONTEXT ( 3 ) GLOBAL_UNCERTAINTY_ASSIGNED_CONTEXT ( ( #155 ) ) GLOBAL_UNIT_ASSIGNED_CONTEXT ( ( #37, #146, #216 ) ) REPRESENTATION_CONTEXT ( 'NONE', 'WORKASPACE' ) );
#178 = ORIENTED_EDGE ( 'NONE', *, *, #161, .F. ) ;
#179 = CARTESIAN_POINT ( 'NONE',  ( -5.000000000000000000, 0.000000000000000000, 3.000000000000000000 ) ) ;
#180 = DIRECTION ( 'NONE',  ( 1.000000000000000000, 0.000000000000000000, 0.000000000000000000 ) ) ;
#181 = CIRCLE ( 'NONE', #274, 5.000000000000000000 ) ;
#182 = FACE_OUTER_BOUND ( 'NONE', #171, .T. ) ;
#183 = ORIENTED_EDGE ( 'NONE', *, *, #144, .F. ) ;
#184 = DIRECTION ( 'NONE',  ( -0.000000000000000000, -0.000000000000000000, -1.000000000000000000 ) ) ;
#185 = ORIENTED_EDGE ( 'NONE', *, *, #164, .F. ) ;
#186 = DIRECTION ( 'NONE',  ( -1.000000000000000000, 0.000000000000000000, 0.000000000000000000 ) ) ;
#187 = AXIS2_PLACEMENT_3D ( 'NONE', #156, #162, #225 ) ;
#188 = VERTEX_POINT ( 'NONE', #127 ) ;
#189 = PRODUCT_RELATED_PRODUCT_CATEGORY ( 'detail', '', ( #95 ) ) ;
#190 = CARTESIAN_POINT ( 'NONE',  ( 0.000000000000000000, 0.000000000000000000, 3.000000000000000000 ) ) ;
#191 = CARTESIAN_POINT ( 'NONE',  ( 0.000000000000000000, 0.000000000000000000, 633.0000000000000000 ) ) ;
#192 = CARTESIAN_POINT ( 'NONE',  ( 0.000000000000000000, 0.000000000000000000, 633.0000000000000000 ) ) ;
#193 = TOROIDAL_SURFACE ( 'NONE', #107, 2.949999999999999734, 0.2000000000000000111 ) ;
#194 = LOCAL_TIME ( 11, 58, 57.00000000000000000, #84 ) ;
#195 = COORDINATED_UNIVERSAL_TIME_OFFSET ( 1, 0, .AHEAD. ) ;
#196 = PERSON_AND_ORGANIZATION ( #275, #88 ) ;
#197 = DATE_AND_TIME ( #291, #133 ) ;
#198 = FACE_OUTER_BOUND ( 'NONE', #71, .T. ) ;
#199 = EDGE_CURVE ( 'NONE', #188, #135, #181, .T. ) ;
#200 = APPROVAL_ROLE ( '' ) ;
#201 = DIRECTION ( 'NONE',  ( -0.000000000000000000, -0.000000000000000000, -1.000000000000000000 ) ) ;
#202 = LINE ( 'NONE', #72, #38 ) ;
#203 = CIRCLE ( 'NONE', #22, 2.750000000000000000 ) ;
#204 = ADVANCED_FACE ( 'NONE', ( #211 ), #209, .F. ) ;
#205 = CLOSED_SHELL ( 'NONE', ( #134, #254, #86, #302, #53, #204, #114, #8, #286 ) ) ;
#206 = DIRECTION ( 'NONE',  ( 1.000000000000000000, 0.000000000000000000, 0.000000000000000000 ) ) ;
#207 = PRODUCT_DEFINITION ( 'NEZNÁMÝ', '', #104, #64 ) ;
#208 = PERSON_AND_ORGANIZATION ( #275, #88 ) ;
#209 = PLANE ( 'NONE',  #55 ) ;
#210 = ORIENTED_EDGE ( 'NONE', *, *, #118, .F. ) ;
#211 = FACE_OUTER_BOUND ( 'NONE', #116, .T. ) ;
#212 = ORIENTED_EDGE ( 'NONE', *, *, #199, .T. ) ;
#213 = ORIENTED_EDGE ( 'NONE', *, *, #76, .T. ) ;
#214 = DIRECTION ( 'NONE',  ( 0.000000000000000000, 0.000000000000000000, 1.000000000000000000 ) ) ;
#215 = AXIS2_PLACEMENT_3D ( 'NONE', #175, #214, #6 ) ;
#216 =( NAMED_UNIT ( * ) SI_UNIT ( $, .STERADIAN. ) SOLID_ANGLE_UNIT ( ) );
#217 = DIRECTION ( 'NONE',  ( 1.000000000000000000, 0.000000000000000000, 0.000000000000000000 ) ) ;
#218 = PRODUCT_DEFINITION_SHAPE ( 'NONE', 'NONE',  #207 ) ;
#219 = APPROVAL_STATUS ( 'not_yet_approved' ) ;
#220 = CIRCLE ( 'NONE', #167, 2.750000000000000000 ) ;
#221 = AXIS2_PLACEMENT_3D ( 'NONE', #34, #147, #271 ) ;
#222 = APPLICATION_PROTOCOL_DEFINITION ( 'international standard', 'config_control_design', 1994, #106 ) ;
#223 = CC_DESIGN_PERSON_AND_ORGANIZATION_ASSIGNMENT ( #85, #170, ( #207 ) ) ;
#224 = FACE_OUTER_BOUND ( 'NONE', #264, .T. ) ;
#225 = DIRECTION ( 'NONE',  ( -1.000000000000000000, 0.000000000000000000, 0.000000000000000000 ) ) ;
#226 = APPROVAL_STATUS ( 'not_yet_approved' ) ;
#227 = CARTESIAN_POINT ( 'NONE',  ( 0.000000000000000000, 0.000000000000000000, 3.000000000000000000 ) ) ;
#228 = DATE_AND_TIME ( #131, #12 ) ;
#229 = DIRECTION ( 'NONE',  ( 1.000000000000000000, 0.000000000000000000, 0.000000000000000000 ) ) ;
#230 = DIRECTION ( 'NONE',  ( 0.000000000000000000, 0.000000000000000000, 1.000000000000000000 ) ) ;
#231 = EDGE_CURVE ( 'NONE', #24, #79, #220, .T. ) ;
#232 = CARTESIAN_POINT ( 'NONE',  ( 0.000000000000000000, 0.000000000000000000, 0.000000000000000000 ) ) ;
#233 = AXIS2_PLACEMENT_3D ( 'NONE', #91, #230, #180 ) ;
#234 = ORIENTED_EDGE ( 'NONE', *, *, #231, .T. ) ;
#235 = AXIS2_PLACEMENT_3D ( 'NONE', #108, #284, #206 ) ;
#236 = APPROVAL_PERSON_ORGANIZATION ( #196, #29, #200 ) ;
#237 = PLANE ( 'NONE',  #128 ) ;
#238 = DIRECTION ( 'NONE',  ( -0.000000000000000000, -0.000000000000000000, -1.000000000000000000 ) ) ;
#239 = ORIENTED_EDGE ( 'NONE', *, *, #199, .F. ) ;
#240 = CARTESIAN_POINT ( 'NONE',  ( 0.000000000000000000, 0.000000000000000000, 3.000000000000000000 ) ) ;
#241 = DIRECTION ( 'NONE',  ( 1.000000000000000000, 0.000000000000000000, 0.000000000000000000 ) ) ;
#242 = APPROVAL_DATE_TIME ( #292, #29 ) ;
#243 = DIRECTION ( 'NONE',  ( 0.000000000000000000, 0.000000000000000000, 1.000000000000000000 ) ) ;
#244 = FACE_OUTER_BOUND ( 'NONE', #18, .T. ) ;
#245 = CIRCLE ( 'NONE', #233, 5.000000000000000000 ) ;
#246 = DIRECTION ( 'NONE',  ( 0.000000000000000000, -1.000000000000000000, 0.000000000000000000 ) ) ;
#247 = CYLINDRICAL_SURFACE ( 'NONE', #63, 5.000000000000000000 ) ;
#248 = EDGE_CURVE ( 'NONE', #154, #42, #5, .T. ) ;
#249 = VERTEX_POINT ( 'NONE', #78 ) ;
#250 = CARTESIAN_POINT ( 'NONE',  ( 2.949999999999999734, 0.000000000000000000, 3.199999999999980638 ) ) ;
#251 = AXIS2_PLACEMENT_3D ( 'NONE', #250, #246, #43 ) ;
#252 = PERSON_AND_ORGANIZATION ( #275, #88 ) ;
#253 = EDGE_LOOP ( 'NONE', ( #280, #49, #261, #98 ) ) ;
#254 = ADVANCED_FACE ( 'NONE', ( #117 ), #23, .T. ) ;
#255 = CARTESIAN_POINT ( 'NONE',  ( 0.000000000000000000, 0.000000000000000000, 3.199999999999980638 ) ) ;
#256 = VERTEX_POINT ( 'NONE', #97 ) ;
#257 = CARTESIAN_POINT ( 'NONE',  ( 0.000000000000000000, 0.000000000000000000, 3.199999999999980638 ) ) ;
#258 = DIRECTION ( 'NONE',  ( 1.000000000000000000, 0.000000000000000000, -0.000000000000000000 ) ) ;
#259 = EDGE_CURVE ( 'NONE', #249, #94, #203, .T. ) ;
#260 = LOCAL_TIME ( 11, 58, 57.00000000000000000, #281 ) ;
#261 = ORIENTED_EDGE ( 'NONE', *, *, #15, .T. ) ;
#262 = ORIENTED_EDGE ( 'NONE', *, *, #118, .T. ) ;
#263 = CIRCLE ( 'NONE', #282, 2.750000000000000000 ) ;
#264 = EDGE_LOOP ( 'NONE', ( #54, #289 ) ) ;
#265 = CARTESIAN_POINT ( 'NONE',  ( 0.000000000000000000, 0.000000000000000000, 3.000000000000000000 ) ) ;
#266 = CC_DESIGN_PERSON_AND_ORGANIZATION_ASSIGNMENT ( #208, #129, ( #104 ) ) ;
#267 = DIRECTION ( 'NONE',  ( 1.000000000000000000, 0.000000000000000000, -0.000000000000000000 ) ) ;
#268 = DIRECTION ( 'NONE',  ( 1.000000000000000000, 0.000000000000000000, 0.000000000000000000 ) ) ;
#269 = AXIS2_PLACEMENT_3D ( 'NONE', #4, #166, #186 ) ;
#270 = DIRECTION ( 'NONE',  ( 0.000000000000000000, 0.000000000000000000, 1.000000000000000000 ) ) ;
#271 = DIRECTION ( 'NONE',  ( -1.000000000000000000, 1.224646799147353207E-16, 0.000000000000000000 ) ) ;
#272 = COORDINATED_UNIVERSAL_TIME_OFFSET ( 1, 0, .AHEAD. ) ;
#273 = CARTESIAN_POINT ( 'NONE',  ( 2.750000000000000000, 3.367778697655221012E-16, 3.199999999999980638 ) ) ;
#274 = AXIS2_PLACEMENT_3D ( 'NONE', #20, #113, #139 ) ;
#275 = PERSON ( 'NEURÈENÝ', 'NEURÈENÝ', 'NEURÈENÝ', ('NEURÈENÝ'), ('NEURÈENÝ'), ('NEURÈENÝ') ) ;
#276 = VECTOR ( 'NONE', #152, 1000.000000000000000 ) ;
#277 = DATE_AND_TIME ( #297, #260 ) ;
#278 = CC_DESIGN_APPROVAL ( #29, ( #207 ) ) ;
#279 = VERTEX_POINT ( 'NONE', #120 ) ;
#280 = ORIENTED_EDGE ( 'NONE', *, *, #3, .F. ) ;
#281 = COORDINATED_UNIVERSAL_TIME_OFFSET ( 1, 0, .AHEAD. ) ;
#282 = AXIS2_PLACEMENT_3D ( 'NONE', #176, #149, #217 ) ;
#283 = CC_DESIGN_APPROVAL ( #142, ( #104 ) ) ;
#284 = DIRECTION ( 'NONE',  ( -0.000000000000000000, -0.000000000000000000, -1.000000000000000000 ) ) ;
#285 = EDGE_LOOP ( 'NONE', ( #307, #299 ) ) ;
#286 = ADVANCED_FACE ( 'NONE', ( #244 ), #193, .F. ) ;
#287 = VECTOR ( 'NONE', #92, 1000.000000000000000 ) ;
#288 = DIRECTION ( 'NONE',  ( 1.000000000000000000, 0.000000000000000000, 0.000000000000000000 ) ) ;
#289 = ORIENTED_EDGE ( 'NONE', *, *, #90, .T. ) ;
#290 = DIRECTION ( 'NONE',  ( 0.000000000000000000, 0.000000000000000000, 1.000000000000000000 ) ) ;
#291 = CALENDAR_DATE ( 2022, 20, 6 ) ;
#292 = DATE_AND_TIME ( #81, #169 ) ;
#293 = FACE_BOUND ( 'NONE', #82, .T. ) ;
#294 = DIRECTION ( 'NONE',  ( 1.000000000000000000, 0.000000000000000000, 0.000000000000000000 ) ) ;
#295 = DIRECTION ( 'NONE',  ( -1.000000000000000000, 0.000000000000000000, 0.000000000000000000 ) ) ;
#296 = LINE ( 'NONE', #122, #174 ) ;
#297 = CALENDAR_DATE ( 2022, 20, 6 ) ;
#298 = FACE_OUTER_BOUND ( 'NONE', #30, .T. ) ;
#299 = ORIENTED_EDGE ( 'NONE', *, *, #25, .T. ) ;
#300 = SHAPE_DEFINITION_REPRESENTATION ( #218, #39 ) ;
#301 = CARTESIAN_POINT ( 'NONE',  ( -2.750000000000000000, 0.000000000000000000, 3.199999999999980638 ) ) ;
#302 = ADVANCED_FACE ( 'NONE', ( #198 ), #33, .T. ) ;
#303 = DATE_TIME_ROLE ( 'classification_date' ) ;
#304 = CIRCLE ( 'NONE', #235, 2.949999999999999734 ) ;
#305 = AXIS2_PLACEMENT_3D ( 'NONE', #7, #99, #109 ) ;
#306 = CYLINDRICAL_SURFACE ( 'NONE', #187, 2.750000000000000000 ) ;
#307 = ORIENTED_EDGE ( 'NONE', *, *, #259, .T. ) ;
ENDSEC;
END-ISO-10303-21;
