ISO-10303-21;
HEADER;
FILE_DESCRIPTION (( 'STEP AP203' ),
    '1' );
FILE_NAME ('8a5e.STEP',
    '2022-06-20T10:23:34',
    ( '' ),
    ( '' ),
    'SwSTEP 2.0',
    'SolidWorks 2019',
    '' );
FILE_SCHEMA (( 'CONFIG_CONTROL_DESIGN' ));
ENDSEC;

DATA;
#1 = LINE ( 'NONE', #173, #2 ) ;
#2 = VECTOR ( 'NONE', #120, 1000.000000000000000 ) ;
#3 = DIRECTION ( 'NONE',  ( 0.000000000000000000, 0.000000000000000000, 1.000000000000000000 ) ) ;
#4 = CC_DESIGN_APPROVAL ( #76, ( #19 ) ) ;
#5 = CALENDAR_DATE ( 2022, 20, 6 ) ;
#6 = MANIFOLD_SOLID_BREP ( 'Zaoblit1', #295 ) ;
#7 = CARTESIAN_POINT ( 'NONE',  ( 1.500000000000000222, 1.836970198721030181E-16, 1.500000000000000000 ) ) ;
#8 = ORIENTED_EDGE ( 'NONE', *, *, #138, .F. ) ;
#9 = APPROVAL_STATUS ( 'not_yet_approved' ) ;
#10 = CARTESIAN_POINT ( 'NONE',  ( 0.000000000000000000, 0.000000000000000000, 1.500000000000000000 ) ) ;
#11 = AXIS2_PLACEMENT_3D ( 'NONE', #272, #254, #128 ) ;
#12 = CC_DESIGN_PERSON_AND_ORGANIZATION_ASSIGNMENT ( #168, #61, ( #19 ) ) ;
#13 = CARTESIAN_POINT ( 'NONE',  ( 0.9000000000000000222, 0.000000000000000000, 1.700000000000007061 ) ) ;
#14 = DIRECTION ( 'NONE',  ( -1.000000000000000000, 0.000000000000000000, 0.000000000000000000 ) ) ;
#15 = DIRECTION ( 'NONE',  ( 1.000000000000000000, 0.000000000000000000, -0.000000000000000000 ) ) ;
#16 = DIRECTION ( 'NONE',  ( 0.000000000000000000, 0.000000000000000000, 1.000000000000000000 ) ) ;
#17 = CARTESIAN_POINT ( 'NONE',  ( 0.000000000000000000, 0.000000000000000000, 0.000000000000000000 ) ) ;
#18 = CALENDAR_DATE ( 2022, 20, 6 ) ;
#19 = PRODUCT_DEFINITION_FORMATION_WITH_SPECIFIED_SOURCE ( 'LIBOVOLNÝ', '', #276, .NOT_KNOWN. ) ;
#20 = CARTESIAN_POINT ( 'NONE',  ( 0.000000000000000000, 0.000000000000000000, 1.700000000000007061 ) ) ;
#21 = ORIENTED_EDGE ( 'NONE', *, *, #163, .F. ) ;
#22 = ORIENTED_EDGE ( 'NONE', *, *, #83, .T. ) ;
#23 = ORIENTED_EDGE ( 'NONE', *, *, #180, .T. ) ;
#24 = ORIENTED_EDGE ( 'NONE', *, *, #180, .F. ) ;
#25 = ORIENTED_EDGE ( 'NONE', *, *, #219, .T. ) ;
#26 = ORIENTED_EDGE ( 'NONE', *, *, #138, .T. ) ;
#27 = CIRCLE ( 'NONE', #48, 0.6999999999999999556 ) ;
#28 = ORIENTED_EDGE ( 'NONE', *, *, #242, .F. ) ;
#29 = FACE_OUTER_BOUND ( 'NONE', #226, .T. ) ;
#30 = CARTESIAN_POINT ( 'NONE',  ( 0.000000000000000000, 0.000000000000000000, 126.5000000000000000 ) ) ;
#31 = CIRCLE ( 'NONE', #143, 0.9000000000000000222 ) ;
#32 = CIRCLE ( 'NONE', #207, 0.6999999999999999556 ) ;
#33 = FACE_OUTER_BOUND ( 'NONE', #291, .T. ) ;
#34 = CYLINDRICAL_SURFACE ( 'NONE', #165, 0.6999999999999999556 ) ;
#35 = ADVANCED_FACE ( 'NONE', ( #79 ), #204, .F. ) ;
#36 = CYLINDRICAL_SURFACE ( 'NONE', #187, 1.500000000000000222 ) ;
#37 = AXIS2_PLACEMENT_3D ( 'NONE', #10, #60, #298 ) ;
#38 = CIRCLE ( 'NONE', #177, 0.2000000000000000944 ) ;
#39 = FACE_OUTER_BOUND ( 'NONE', #248, .T. ) ;
#40 = VERTEX_POINT ( 'NONE', #101 ) ;
#41 = DIRECTION ( 'NONE',  ( 0.000000000000000000, 0.000000000000000000, 1.000000000000000000 ) ) ;
#42 = VERTEX_POINT ( 'NONE', #266 ) ;
#43 = ORIENTED_EDGE ( 'NONE', *, *, #50, .T. ) ;
#44 = PERSON_AND_ORGANIZATION ( #285, #127 ) ;
#45 = ORIENTED_EDGE ( 'NONE', *, *, #129, .F. ) ;
#46 = EDGE_CURVE ( 'NONE', #42, #161, #122, .T. ) ;
#47 = VERTEX_POINT ( 'NONE', #290 ) ;
#48 = AXIS2_PLACEMENT_3D ( 'NONE', #205, #16, #211 ) ;
#49 = DIRECTION ( 'NONE',  ( -0.000000000000000000, -0.000000000000000000, -1.000000000000000000 ) ) ;
#50 = EDGE_CURVE ( 'NONE', #72, #102, #1, .T. ) ;
#51 = DIRECTION ( 'NONE',  ( -0.000000000000000000, -0.000000000000000000, -1.000000000000000000 ) ) ;
#52 = AXIS2_PLACEMENT_3D ( 'NONE', #250, #228, #271 ) ;
#53 = ORIENTED_EDGE ( 'NONE', *, *, #50, .F. ) ;
#54 = CYLINDRICAL_SURFACE ( 'NONE', #218, 0.6999999999999999556 ) ;
#55 = CC_DESIGN_PERSON_AND_ORGANIZATION_ASSIGNMENT ( #139, #234, ( #121 ) ) ;
#56 = DIRECTION ( 'NONE',  ( -0.000000000000000000, -0.000000000000000000, -1.000000000000000000 ) ) ;
#57 = FACE_OUTER_BOUND ( 'NONE', #196, .T. ) ;
#58 = VECTOR ( 'NONE', #56, 1000.000000000000000 ) ;
#59 = CC_DESIGN_SECURITY_CLASSIFICATION ( #121, ( #19 ) ) ;
#60 = DIRECTION ( 'NONE',  ( -0.000000000000000000, -0.000000000000000000, -1.000000000000000000 ) ) ;
#61 = PERSON_AND_ORGANIZATION_ROLE ( 'creator' ) ;
#62 = DIRECTION ( 'NONE',  ( -0.000000000000000000, -0.000000000000000000, -1.000000000000000000 ) ) ;
#63 = DIRECTION ( 'NONE',  ( 1.000000000000000000, 0.000000000000000000, 0.000000000000000000 ) ) ;
#64 = VERTEX_POINT ( 'NONE', #222 ) ;
#65 = ADVANCED_FACE ( 'NONE', ( #144, #29 ), #268, .T. ) ;
#66 = PERSON_AND_ORGANIZATION_ROLE ( 'creator' ) ;
#67 = APPLICATION_CONTEXT ( 'configuration controlled 3d designs of mechanical parts and assemblies' ) ;
#68 = EDGE_LOOP ( 'NONE', ( #282, #171, #258, #21 ) ) ;
#69 = PERSON_AND_ORGANIZATION_ROLE ( 'design_owner' ) ;
#70 = APPROVAL_PERSON_ORGANIZATION ( #260, #76, #306 ) ;
#71 = APPROVAL_DATE_TIME ( #287, #76 ) ;
#72 = VERTEX_POINT ( 'NONE', #203 ) ;
#73 = ORIENTED_EDGE ( 'NONE', *, *, #170, .F. ) ;
#74 = CIRCLE ( 'NONE', #11, 1.500000000000000222 ) ;
#75 = AXIS2_PLACEMENT_3D ( 'NONE', #257, #237, #140 ) ;
#76 = APPROVAL ( #216, 'NEURÈENÝ' ) ;
#77 = ORIENTED_EDGE ( 'NONE', *, *, #293, .T. ) ;
#78 = DIRECTION ( 'NONE',  ( 1.000000000000000000, 0.000000000000000000, -0.000000000000000000 ) ) ;
#79 = FACE_OUTER_BOUND ( 'NONE', #289, .T. ) ;
#80 = AXIS2_PLACEMENT_3D ( 'NONE', #156, #84, #108 ) ;
#81 = DIRECTION ( 'NONE',  ( 1.000000000000000000, 0.000000000000000000, 0.000000000000000000 ) ) ;
#82 = APPROVAL_DATE_TIME ( #297, #284 ) ;
#83 = EDGE_CURVE ( 'NONE', #40, #102, #195, .T. ) ;
#84 = DIRECTION ( 'NONE',  ( 0.000000000000000000, 0.000000000000000000, 1.000000000000000000 ) ) ;
#85 = DIRECTION ( 'NONE',  ( -0.000000000000000000, -0.000000000000000000, -1.000000000000000000 ) ) ;
#86 = FACE_OUTER_BOUND ( 'NONE', #245, .T. ) ;
#87 = EDGE_CURVE ( 'NONE', #283, #47, #31, .T. ) ;
#88 = CARTESIAN_POINT ( 'NONE',  ( 0.000000000000000000, 0.000000000000000000, 1.500000000000000000 ) ) ;
#89 = APPROVAL_STATUS ( 'not_yet_approved' ) ;
#90 = CIRCLE ( 'NONE', #52, 1.500000000000000222 ) ;
#91 = APPROVAL_PERSON_ORGANIZATION ( #44, #284, #175 ) ;
#92 = APPROVAL_DATE_TIME ( #186, #106 ) ;
#93 = DIRECTION ( 'NONE',  ( 1.000000000000000000, 0.000000000000000000, 0.000000000000000000 ) ) ;
#94 = COORDINATED_UNIVERSAL_TIME_OFFSET ( 1, 0, .AHEAD. ) ;
#95 = DATE_AND_TIME ( #286, #201 ) ;
#96 = PERSON_AND_ORGANIZATION_ROLE ( 'design_supplier' ) ;
#97 = VERTEX_POINT ( 'NONE', #7 ) ;
#98 = ADVANCED_FACE ( 'NONE', ( #57 ), #34, .T. ) ;
#99 = DIRECTION ( 'NONE',  ( 0.000000000000000000, 0.000000000000000000, 1.000000000000000000 ) ) ;
#100 = VERTEX_POINT ( 'NONE', #107 ) ;
#101 = CARTESIAN_POINT ( 'NONE',  ( 1.500000000000000222, 1.836970198721030181E-16, 0.000000000000000000 ) ) ;
#102 = VERTEX_POINT ( 'NONE', #158 ) ;
#103 = EDGE_CURVE ( 'NONE', #72, #97, #74, .T. ) ;
#104 = DIRECTION ( 'NONE',  ( 1.000000000000000000, 0.000000000000000000, 0.000000000000000000 ) ) ;
#105 = PLANE ( 'NONE',  #223 ) ;
#106 = APPROVAL ( #89, 'NEURÈENÝ' ) ;
#107 = CARTESIAN_POINT ( 'NONE',  ( -0.6999999999999999556, 0.000000000000000000, 126.5000000000000000 ) ) ;
#108 = DIRECTION ( 'NONE',  ( 1.000000000000000000, 0.000000000000000000, 0.000000000000000000 ) ) ;
#109 = PERSON_AND_ORGANIZATION ( #285, #127 ) ;
#110 = DESIGN_CONTEXT ( 'detailed design', #213, 'design' ) ;
#111 = UNCERTAINTY_MEASURE_WITH_UNIT (LENGTH_MEASURE( 1.000000000000000082E-05 ), #232, 'distance_accuracy_value', 'NONE');
#112 =( NAMED_UNIT ( * ) SI_UNIT ( $, .STERADIAN. ) SOLID_ANGLE_UNIT ( ) );
#113 = COORDINATED_UNIVERSAL_TIME_OFFSET ( 1, 0, .AHEAD. ) ;
#114 = PRODUCT_DEFINITION ( 'NEZNÁMÝ', '', #19, #110 ) ;
#115 = AXIS2_PLACEMENT_3D ( 'NONE', #88, #62, #63 ) ;
#116 = CC_DESIGN_APPROVAL ( #106, ( #114 ) ) ;
#117 = ORIENTED_EDGE ( 'NONE', *, *, #103, .F. ) ;
#118 = CC_DESIGN_PERSON_AND_ORGANIZATION_ASSIGNMENT ( #164, #66, ( #114 ) ) ;
#119 = CARTESIAN_POINT ( 'NONE',  ( 0.000000000000000000, 0.000000000000000000, 0.000000000000000000 ) ) ;
#120 = DIRECTION ( 'NONE',  ( -0.000000000000000000, -0.000000000000000000, -1.000000000000000000 ) ) ;
#121 = SECURITY_CLASSIFICATION ( '', '', #243 ) ;
#122 = LINE ( 'NONE', #269, #137 ) ;
#123 = PERSON_AND_ORGANIZATION ( #285, #127 ) ;
#124 = ADVANCED_FACE ( 'NONE', ( #126 ), #251, .F. ) ;
#125 = ORIENTED_EDGE ( 'NONE', *, *, #87, .F. ) ;
#126 = FACE_OUTER_BOUND ( 'NONE', #199, .T. ) ;
#127 = ORGANIZATION ( 'NEURÈENÝ', 'NEURÈENÝ', '' ) ;
#128 = DIRECTION ( 'NONE',  ( 1.000000000000000000, 0.000000000000000000, 0.000000000000000000 ) ) ;
#129 = EDGE_CURVE ( 'NONE', #97, #72, #90, .T. ) ;
#130 = COORDINATED_UNIVERSAL_TIME_OFFSET ( 1, 0, .AHEAD. ) ;
#131 = CARTESIAN_POINT ( 'NONE',  ( 0.000000000000000000, 0.000000000000000000, 126.5000000000000000 ) ) ;
#132 = CARTESIAN_POINT ( 'NONE',  ( 1.500000000000000222, 1.836970198721030181E-16, 1.500000000000000000 ) ) ;
#133 = ADVANCED_FACE ( 'NONE', ( #33 ), #36, .T. ) ;
#134 = APPROVAL_ROLE ( '' ) ;
#135 = MECHANICAL_CONTEXT ( 'NONE', #67, 'mechanical' ) ;
#136 = ORIENTED_EDGE ( 'NONE', *, *, #212, .T. ) ;
#137 = VECTOR ( 'NONE', #49, 1000.000000000000000 ) ;
#138 = EDGE_CURVE ( 'NONE', #64, #161, #27, .T. ) ;
#139 = PERSON_AND_ORGANIZATION ( #285, #127 ) ;
#140 = DIRECTION ( 'NONE',  ( 1.000000000000000000, 0.000000000000000000, 0.000000000000000000 ) ) ;
#141 = DIRECTION ( 'NONE',  ( 1.000000000000000000, 0.000000000000000000, 0.000000000000000000 ) ) ;
#142 = ORIENTED_EDGE ( 'NONE', *, *, #185, .T. ) ;
#143 = AXIS2_PLACEMENT_3D ( 'NONE', #244, #51, #225 ) ;
#144 = FACE_BOUND ( 'NONE', #169, .T. ) ;
#145 = DIRECTION ( 'NONE',  ( 1.000000000000000000, 0.000000000000000000, 0.000000000000000000 ) ) ;
#146 = ORIENTED_EDGE ( 'NONE', *, *, #163, .T. ) ;
#147 = AXIS2_PLACEMENT_3D ( 'NONE', #231, #181, #81 ) ;
#148 = CC_DESIGN_PERSON_AND_ORGANIZATION_ASSIGNMENT ( #109, #69, ( #276 ) ) ;
#149 = AXIS2_PLACEMENT_3D ( 'NONE', #17, #41, #93 ) ;
#150 = ORIENTED_EDGE ( 'NONE', *, *, #219, .F. ) ;
#151 = DIRECTION ( 'NONE',  ( -1.000000000000000000, 0.000000000000000000, 0.000000000000000000 ) ) ;
#152 = SHAPE_DEFINITION_REPRESENTATION ( #229, #157 ) ;
#153 = DIRECTION ( 'NONE',  ( -0.000000000000000000, -0.000000000000000000, -1.000000000000000000 ) ) ;
#154 = APPROVAL_PERSON_ORGANIZATION ( #235, #106, #134 ) ;
#155 = LINE ( 'NONE', #132, #183 ) ;
#156 = CARTESIAN_POINT ( 'NONE',  ( 0.000000000000000000, 0.000000000000000000, 126.5000000000000000 ) ) ;
#157 = ADVANCED_BREP_SHAPE_REPRESENTATION ( '8a5e', ( #6, #149 ), #189 ) ;
#158 = CARTESIAN_POINT ( 'NONE',  ( -1.500000000000000222, 0.000000000000000000, 0.000000000000000000 ) ) ;
#159 = PRODUCT_RELATED_PRODUCT_CATEGORY ( 'detail', '', ( #276 ) ) ;
#160 = DIRECTION ( 'NONE',  ( 0.000000000000000000, 0.000000000000000000, 1.000000000000000000 ) ) ;
#161 = VERTEX_POINT ( 'NONE', #299 ) ;
#162 = CALENDAR_DATE ( 2022, 20, 6 ) ;
#163 = EDGE_CURVE ( 'NONE', #100, #64, #255, .T. ) ;
#164 = PERSON_AND_ORGANIZATION ( #285, #127 ) ;
#165 = AXIS2_PLACEMENT_3D ( 'NONE', #209, #249, #14 ) ;
#166 = LOCAL_TIME ( 12, 23, 34.00000000000000000, #307 ) ;
#167 = DATE_TIME_ROLE ( 'classification_date' ) ;
#168 = PERSON_AND_ORGANIZATION ( #285, #127 ) ;
#169 = EDGE_LOOP ( 'NONE', ( #25, #238 ) ) ;
#170 = EDGE_CURVE ( 'NONE', #102, #40, #200, .T. ) ;
#171 = ORIENTED_EDGE ( 'NONE', *, *, #46, .T. ) ;
#172 = AXIS2_PLACEMENT_3D ( 'NONE', #119, #99, #145 ) ;
#173 = CARTESIAN_POINT ( 'NONE',  ( -1.500000000000000222, 0.000000000000000000, 1.500000000000000000 ) ) ;
#174 = ORIENTED_EDGE ( 'NONE', *, *, #293, .F. ) ;
#175 = APPROVAL_ROLE ( '' ) ;
#176 = ORIENTED_EDGE ( 'NONE', *, *, #129, .T. ) ;
#177 = AXIS2_PLACEMENT_3D ( 'NONE', #13, #179, #273 ) ;
#178 = TOROIDAL_SURFACE ( 'NONE', #75, 0.9000000000000000222, 0.2000000000000000111 ) ;
#179 = DIRECTION ( 'NONE',  ( 0.000000000000000000, -1.000000000000000000, 0.000000000000000000 ) ) ;
#180 = EDGE_CURVE ( 'NONE', #161, #47, #38, .T. ) ;
#181 = DIRECTION ( 'NONE',  ( 0.000000000000000000, 0.000000000000000000, 1.000000000000000000 ) ) ;
#182 = DIRECTION ( 'NONE',  ( -0.000000000000000000, -0.000000000000000000, -1.000000000000000000 ) ) ;
#183 = VECTOR ( 'NONE', #85, 1000.000000000000000 ) ;
#184 = FACE_OUTER_BOUND ( 'NONE', #265, .T. ) ;
#185 = EDGE_CURVE ( 'NONE', #97, #40, #155, .T. ) ;
#186 = DATE_AND_TIME ( #18, #240 ) ;
#187 = AXIS2_PLACEMENT_3D ( 'NONE', #274, #153, #275 ) ;
#188 = COORDINATED_UNIVERSAL_TIME_OFFSET ( 1, 0, .AHEAD. ) ;
#189 =( GEOMETRIC_REPRESENTATION_CONTEXT ( 3 ) GLOBAL_UNCERTAINTY_ASSIGNED_CONTEXT ( ( #111 ) ) GLOBAL_UNIT_ASSIGNED_CONTEXT ( ( #232, #214, #112 ) ) REPRESENTATION_CONTEXT ( 'NONE', 'WORKASPACE' ) );
#190 = ADVANCED_FACE ( 'NONE', ( #208 ), #54, .T. ) ;
#191 = DATE_TIME_ROLE ( 'creation_date' ) ;
#192 = DIRECTION ( 'NONE',  ( -1.000000000000000000, 1.224646799147353207E-16, 0.000000000000000000 ) ) ;
#193 = CALENDAR_DATE ( 2022, 20, 6 ) ;
#194 = ORIENTED_EDGE ( 'NONE', *, *, #242, .T. ) ;
#195 = CIRCLE ( 'NONE', #172, 1.500000000000000222 ) ;
#196 = EDGE_LOOP ( 'NONE', ( #239, #28, #146, #26 ) ) ;
#197 = ADVANCED_FACE ( 'NONE', ( #86 ), #105, .T. ) ;
#198 = DIRECTION ( 'NONE',  ( 0.000000000000000000, 0.000000000000000000, 1.000000000000000000 ) ) ;
#199 = EDGE_LOOP ( 'NONE', ( #174, #221, #23, #125 ) ) ;
#200 = CIRCLE ( 'NONE', #210, 1.500000000000000222 ) ;
#201 = LOCAL_TIME ( 12, 23, 34.00000000000000000, #113 ) ;
#202 = ADVANCED_FACE ( 'NONE', ( #184 ), #227, .T. ) ;
#203 = CARTESIAN_POINT ( 'NONE',  ( -1.500000000000000222, 0.000000000000000000, 1.500000000000000000 ) ) ;
#204 = PLANE ( 'NONE',  #206 ) ;
#205 = CARTESIAN_POINT ( 'NONE',  ( 0.000000000000000000, 0.000000000000000000, 1.700000000000007061 ) ) ;
#206 = AXIS2_PLACEMENT_3D ( 'NONE', #292, #198, #78 ) ;
#207 = AXIS2_PLACEMENT_3D ( 'NONE', #20, #277, #281 ) ;
#208 = FACE_OUTER_BOUND ( 'NONE', #68, .T. ) ;
#209 = CARTESIAN_POINT ( 'NONE',  ( 0.000000000000000000, 0.000000000000000000, 126.5000000000000000 ) ) ;
#210 = AXIS2_PLACEMENT_3D ( 'NONE', #294, #301, #104 ) ;
#211 = DIRECTION ( 'NONE',  ( 1.000000000000000000, 0.000000000000000000, 0.000000000000000000 ) ) ;
#212 = EDGE_CURVE ( 'NONE', #42, #100, #262, .T. ) ;
#213 = APPLICATION_CONTEXT ( 'configuration controlled 3d designs of mechanical parts and assemblies' ) ;
#214 =( NAMED_UNIT ( * ) PLANE_ANGLE_UNIT ( ) SI_UNIT ( $, .RADIAN. ) );
#215 = AXIS2_PLACEMENT_3D ( 'NONE', #302, #160, #141 ) ;
#216 = APPROVAL_STATUS ( 'not_yet_approved' ) ;
#217 = APPLICATION_PROTOCOL_DEFINITION ( 'international standard', 'config_control_design', 1994, #213 ) ;
#218 = AXIS2_PLACEMENT_3D ( 'NONE', #131, #182, #151 ) ;
#219 = EDGE_CURVE ( 'NONE', #47, #283, #256, .T. ) ;
#220 = ORIENTED_EDGE ( 'NONE', *, *, #185, .F. ) ;
#221 = ORIENTED_EDGE ( 'NONE', *, *, #236, .F. ) ;
#222 = CARTESIAN_POINT ( 'NONE',  ( -0.6999999999999999556, 0.000000000000000000, 1.700000000000007061 ) ) ;
#223 = AXIS2_PLACEMENT_3D ( 'NONE', #30, #230, #15 ) ;
#224 = LOCAL_TIME ( 12, 23, 34.00000000000000000, #94 ) ;
#225 = DIRECTION ( 'NONE',  ( 1.000000000000000000, 0.000000000000000000, 0.000000000000000000 ) ) ;
#226 = EDGE_LOOP ( 'NONE', ( #288, #176 ) ) ;
#227 = CYLINDRICAL_SURFACE ( 'NONE', #37, 1.500000000000000222 ) ;
#228 = DIRECTION ( 'NONE',  ( 0.000000000000000000, 0.000000000000000000, 1.000000000000000000 ) ) ;
#229 = PRODUCT_DEFINITION_SHAPE ( 'NONE', 'NONE',  #114 ) ;
#230 = DIRECTION ( 'NONE',  ( 0.000000000000000000, 0.000000000000000000, 1.000000000000000000 ) ) ;
#231 = CARTESIAN_POINT ( 'NONE',  ( 0.000000000000000000, 0.000000000000000000, 1.700000000000007061 ) ) ;
#232 =( LENGTH_UNIT ( ) NAMED_UNIT ( * ) SI_UNIT ( .MILLI., .METRE. ) );
#233 = ORIENTED_EDGE ( 'NONE', *, *, #83, .F. ) ;
#234 = PERSON_AND_ORGANIZATION_ROLE ( 'classification_officer' ) ;
#235 = PERSON_AND_ORGANIZATION ( #285, #127 ) ;
#236 = EDGE_CURVE ( 'NONE', #161, #64, #32, .T. ) ;
#237 = DIRECTION ( 'NONE',  ( 0.000000000000000000, 0.000000000000000000, 1.000000000000000000 ) ) ;
#238 = ORIENTED_EDGE ( 'NONE', *, *, #87, .T. ) ;
#239 = ORIENTED_EDGE ( 'NONE', *, *, #46, .F. ) ;
#240 = LOCAL_TIME ( 12, 23, 34.00000000000000000, #188 ) ;
#241 = CARTESIAN_POINT ( 'NONE',  ( 0.000000000000000000, 0.000000000000000000, 1.500000000000000000 ) ) ;
#242 = EDGE_CURVE ( 'NONE', #100, #42, #263, .T. ) ;
#243 = SECURITY_CLASSIFICATION_LEVEL ( 'unclassified' ) ;
#244 = CARTESIAN_POINT ( 'NONE',  ( 0.000000000000000000, 0.000000000000000000, 1.500000000000000000 ) ) ;
#245 = EDGE_LOOP ( 'NONE', ( #194, #136 ) ) ;
#246 = AXIS2_PLACEMENT_3D ( 'NONE', #241, #3, #267 ) ;
#247 = LOCAL_TIME ( 12, 23, 34.00000000000000000, #130 ) ;
#248 = EDGE_LOOP ( 'NONE', ( #8, #77, #150, #24 ) ) ;
#249 = DIRECTION ( 'NONE',  ( -0.000000000000000000, -0.000000000000000000, -1.000000000000000000 ) ) ;
#250 = CARTESIAN_POINT ( 'NONE',  ( 0.000000000000000000, 0.000000000000000000, 1.500000000000000000 ) ) ;
#251 = TOROIDAL_SURFACE ( 'NONE', #147, 0.9000000000000000222, 0.2000000000000000111 ) ;
#252 = CIRCLE ( 'NONE', #278, 0.2000000000000000944 ) ;
#253 = ADVANCED_FACE ( 'NONE', ( #39 ), #178, .F. ) ;
#254 = DIRECTION ( 'NONE',  ( 0.000000000000000000, 0.000000000000000000, 1.000000000000000000 ) ) ;
#255 = LINE ( 'NONE', #300, #58 ) ;
#256 = CIRCLE ( 'NONE', #115, 0.9000000000000000222 ) ;
#257 = CARTESIAN_POINT ( 'NONE',  ( 0.000000000000000000, 0.000000000000000000, 1.700000000000007061 ) ) ;
#258 = ORIENTED_EDGE ( 'NONE', *, *, #236, .T. ) ;
#259 = CARTESIAN_POINT ( 'NONE',  ( -0.9000000000000000222, 1.102182119232617788E-16, 1.700000000000007061 ) ) ;
#260 = PERSON_AND_ORGANIZATION ( #285, #127 ) ;
#261 = ORIENTED_EDGE ( 'NONE', *, *, #170, .T. ) ;
#262 = CIRCLE ( 'NONE', #80, 0.6999999999999999556 ) ;
#263 = CIRCLE ( 'NONE', #215, 0.6999999999999999556 ) ;
#264 = DIRECTION ( 'NONE',  ( 1.224646799147353207E-16, 1.000000000000000000, -0.000000000000000000 ) ) ;
#265 = EDGE_LOOP ( 'NONE', ( #45, #142, #22, #53 ) ) ;
#266 = CARTESIAN_POINT ( 'NONE',  ( 0.6999999999999999556, 8.572527594031471957E-17, 126.5000000000000000 ) ) ;
#267 = DIRECTION ( 'NONE',  ( 1.000000000000000000, 0.000000000000000000, -0.000000000000000000 ) ) ;
#268 = PLANE ( 'NONE',  #246 ) ;
#269 = CARTESIAN_POINT ( 'NONE',  ( 0.6999999999999999556, 8.572527594031471957E-17, 126.5000000000000000 ) ) ;
#270 = CC_DESIGN_DATE_AND_TIME_ASSIGNMENT ( #304, #191, ( #114 ) ) ;
#271 = DIRECTION ( 'NONE',  ( 1.000000000000000000, 0.000000000000000000, 0.000000000000000000 ) ) ;
#272 = CARTESIAN_POINT ( 'NONE',  ( 0.000000000000000000, 0.000000000000000000, 1.500000000000000000 ) ) ;
#273 = DIRECTION ( 'NONE',  ( 0.000000000000000000, 0.000000000000000000, -1.000000000000000000 ) ) ;
#274 = CARTESIAN_POINT ( 'NONE',  ( 0.000000000000000000, 0.000000000000000000, 1.500000000000000000 ) ) ;
#275 = DIRECTION ( 'NONE',  ( -1.000000000000000000, 0.000000000000000000, 0.000000000000000000 ) ) ;
#276 = PRODUCT ( '8a5e', '8a5e', '', ( #135 ) ) ;
#277 = DIRECTION ( 'NONE',  ( 0.000000000000000000, 0.000000000000000000, 1.000000000000000000 ) ) ;
#278 = AXIS2_PLACEMENT_3D ( 'NONE', #259, #264, #192 ) ;
#279 = CC_DESIGN_DATE_AND_TIME_ASSIGNMENT ( #95, #167, ( #121 ) ) ;
#280 = CARTESIAN_POINT ( 'NONE',  ( -0.9000000000000000222, 1.102182119232617788E-16, 1.500000000000003553 ) ) ;
#281 = DIRECTION ( 'NONE',  ( 1.000000000000000000, 0.000000000000000000, 0.000000000000000000 ) ) ;
#282 = ORIENTED_EDGE ( 'NONE', *, *, #212, .F. ) ;
#283 = VERTEX_POINT ( 'NONE', #280 ) ;
#284 = APPROVAL ( #9, 'NEURÈENÝ' ) ;
#285 = PERSON ( 'NEURÈENÝ', 'NEURÈENÝ', 'NEURÈENÝ', ('NEURÈENÝ'), ('NEURÈENÝ'), ('NEURÈENÝ') ) ;
#286 = CALENDAR_DATE ( 2022, 20, 6 ) ;
#287 = DATE_AND_TIME ( #193, #224 ) ;
#288 = ORIENTED_EDGE ( 'NONE', *, *, #103, .T. ) ;
#289 = EDGE_LOOP ( 'NONE', ( #73, #233 ) ) ;
#290 = CARTESIAN_POINT ( 'NONE',  ( 0.9000000000000000222, 0.000000000000000000, 1.500000000000003553 ) ) ;
#291 = EDGE_LOOP ( 'NONE', ( #220, #117, #43, #261 ) ) ;
#292 = CARTESIAN_POINT ( 'NONE',  ( 0.000000000000000000, 0.000000000000000000, 0.000000000000000000 ) ) ;
#293 = EDGE_CURVE ( 'NONE', #64, #283, #252, .T. ) ;
#294 = CARTESIAN_POINT ( 'NONE',  ( 0.000000000000000000, 0.000000000000000000, 0.000000000000000000 ) ) ;
#295 = CLOSED_SHELL ( 'NONE', ( #253, #190, #202, #133, #65, #35, #98, #197, #124 ) ) ;
#296 = CC_DESIGN_APPROVAL ( #284, ( #121 ) ) ;
#297 = DATE_AND_TIME ( #5, #247 ) ;
#298 = DIRECTION ( 'NONE',  ( -1.000000000000000000, 0.000000000000000000, 0.000000000000000000 ) ) ;
#299 = CARTESIAN_POINT ( 'NONE',  ( 0.6999999999999999556, 8.572527594031471957E-17, 1.700000000000007061 ) ) ;
#300 = CARTESIAN_POINT ( 'NONE',  ( -0.6999999999999999556, 0.000000000000000000, 126.5000000000000000 ) ) ;
#301 = DIRECTION ( 'NONE',  ( 0.000000000000000000, 0.000000000000000000, 1.000000000000000000 ) ) ;
#302 = CARTESIAN_POINT ( 'NONE',  ( 0.000000000000000000, 0.000000000000000000, 126.5000000000000000 ) ) ;
#303 = APPLICATION_PROTOCOL_DEFINITION ( 'international standard', 'config_control_design', 1994, #67 ) ;
#304 = DATE_AND_TIME ( #162, #166 ) ;
#305 = CC_DESIGN_PERSON_AND_ORGANIZATION_ASSIGNMENT ( #123, #96, ( #19 ) ) ;
#306 = APPROVAL_ROLE ( '' ) ;
#307 = COORDINATED_UNIVERSAL_TIME_OFFSET ( 1, 0, .AHEAD. ) ;
ENDSEC;
END-ISO-10303-21;
