ISO-10303-21;
HEADER;
FILE_DESCRIPTION (( 'STEP AP203' ),
    '1' );
FILE_NAME ('6595.STEP',
    '2022-06-20T09:49:51',
    ( '' ),
    ( '' ),
    'SwSTEP 2.0',
    'SolidWorks 2019',
    '' );
FILE_SCHEMA (( 'CONFIG_CONTROL_DESIGN' ));
ENDSEC;

DATA;
#1 = PERSON_AND_ORGANIZATION ( #169, #301 ) ;
#2 = EDGE_CURVE ( 'NONE', #147, #241, #3, .T. ) ;
#3 = CIRCLE ( 'NONE', #81, 4.000000000000000000 ) ;
#4 = DIRECTION ( 'NONE',  ( -1.000000000000000000, 0.000000000000000000, 0.000000000000000000 ) ) ;
#5 = AXIS2_PLACEMENT_3D ( 'NONE', #39, #250, #277 ) ;
#6 = APPLICATION_CONTEXT ( 'configuration controlled 3d designs of mechanical parts and assemblies' ) ;
#7 = CARTESIAN_POINT ( 'NONE',  ( 0.000000000000000000, 0.000000000000000000, 5.199999999999996625 ) ) ;
#8 = VECTOR ( 'NONE', #180, 1000.000000000000000 ) ;
#9 = ORIENTED_EDGE ( 'NONE', *, *, #243, .T. ) ;
#10 = EDGE_CURVE ( 'NONE', #241, #105, #108, .T. ) ;
#11 = FACE_BOUND ( 'NONE', #237, .T. ) ;
#12 = ORIENTED_EDGE ( 'NONE', *, *, #144, .F. ) ;
#13 = CIRCLE ( 'NONE', #186, 4.000000000000000000 ) ;
#14 = FACE_OUTER_BOUND ( 'NONE', #270, .T. ) ;
#15 = DIRECTION ( 'NONE',  ( 0.000000000000000000, 0.000000000000000000, 1.000000000000000000 ) ) ;
#16 = FACE_OUTER_BOUND ( 'NONE', #123, .T. ) ;
#17 = ADVANCED_FACE ( 'NONE', ( #11, #172 ), #37, .T. ) ;
#18 = DATE_AND_TIME ( #23, #168 ) ;
#19 = LINE ( 'NONE', #303, #119 ) ;
#20 = LOCAL_TIME ( 11, 49, 51.00000000000000000, #138 ) ;
#21 = ADVANCED_FACE ( 'NONE', ( #14 ), #242, .F. ) ;
#22 = CARTESIAN_POINT ( 'NONE',  ( 0.000000000000000000, 0.000000000000000000, 105.0000000000000142 ) ) ;
#23 = CALENDAR_DATE ( 2022, 20, 6 ) ;
#24 = MANIFOLD_SOLID_BREP ( 'Zaoblit1', #113 ) ;
#25 = DIRECTION ( 'NONE',  ( 0.000000000000000000, 0.000000000000000000, 1.000000000000000000 ) ) ;
#26 = CARTESIAN_POINT ( 'NONE',  ( 0.000000000000000000, 0.000000000000000000, 5.000000000000000000 ) ) ;
#27 = LOCAL_TIME ( 11, 49, 51.00000000000000000, #64 ) ;
#28 = PERSON_AND_ORGANIZATION ( #169, #301 ) ;
#29 = ADVANCED_BREP_SHAPE_REPRESENTATION ( '6595', ( #24, #89 ), #111 ) ;
#30 = CC_DESIGN_DATE_AND_TIME_ASSIGNMENT ( #208, #185, ( #290 ) ) ;
#31 = ORIENTED_EDGE ( 'NONE', *, *, #193, .T. ) ;
#32 = EDGE_LOOP ( 'NONE', ( #82, #267 ) ) ;
#33 = CC_DESIGN_APPROVAL ( #129, ( #101 ) ) ;
#34 = DIRECTION ( 'NONE',  ( 1.224646799147353207E-16, 1.000000000000000000, -0.000000000000000000 ) ) ;
#35 = ORIENTED_EDGE ( 'NONE', *, *, #258, .T. ) ;
#36 = EDGE_CURVE ( 'NONE', #104, #239, #79, .T. ) ;
#37 = PLANE ( 'NONE',  #120 ) ;
#38 = PRODUCT_DEFINITION_FORMATION_WITH_SPECIFIED_SOURCE ( 'LIBOVOLNÝ', '', #206, .NOT_KNOWN. ) ;
#39 = CARTESIAN_POINT ( 'NONE',  ( 0.000000000000000000, 0.000000000000000000, 105.0000000000000142 ) ) ;
#40 = CALENDAR_DATE ( 2022, 20, 6 ) ;
#41 = CARTESIAN_POINT ( 'NONE',  ( 4.000000000000000000, 4.898587196589412829E-16, 105.0000000000000142 ) ) ;
#42 = CALENDAR_DATE ( 2022, 20, 6 ) ;
#43 = DIRECTION ( 'NONE',  ( 1.000000000000000000, 0.000000000000000000, -0.000000000000000000 ) ) ;
#44 = CARTESIAN_POINT ( 'NONE',  ( 4.000000000000000000, 4.898587196589412829E-16, 105.0000000000000142 ) ) ;
#45 = AXIS2_PLACEMENT_3D ( 'NONE', #177, #228, #182 ) ;
#46 = DIRECTION ( 'NONE',  ( -1.000000000000000000, 0.000000000000000000, 0.000000000000000000 ) ) ;
#47 = ADVANCED_FACE ( 'NONE', ( #256 ), #114, .T. ) ;
#48 = APPROVAL_ROLE ( '' ) ;
#49 = CARTESIAN_POINT ( 'NONE',  ( 0.000000000000000000, 0.000000000000000000, 5.199999999999996625 ) ) ;
#50 = APPROVAL_STATUS ( 'not_yet_approved' ) ;
#51 = CIRCLE ( 'NONE', #224, 4.200000000000000178 ) ;
#52 = ADVANCED_FACE ( 'NONE', ( #16 ), #252, .T. ) ;
#53 = CC_DESIGN_DATE_AND_TIME_ASSIGNMENT ( #18, #72, ( #101 ) ) ;
#54 = AXIS2_PLACEMENT_3D ( 'NONE', #66, #112, #90 ) ;
#55 = CARTESIAN_POINT ( 'NONE',  ( 0.000000000000000000, 0.000000000000000000, 5.199999999999996625 ) ) ;
#56 = AXIS2_PLACEMENT_3D ( 'NONE', #55, #165, #143 ) ;
#57 = EDGE_LOOP ( 'NONE', ( #61, #195, #83, #269 ) ) ;
#58 = ORIENTED_EDGE ( 'NONE', *, *, #100, .T. ) ;
#59 = ORIENTED_EDGE ( 'NONE', *, *, #198, .T. ) ;
#60 = LOCAL_TIME ( 11, 49, 51.00000000000000000, #96 ) ;
#61 = ORIENTED_EDGE ( 'NONE', *, *, #260, .F. ) ;
#62 = ORIENTED_EDGE ( 'NONE', *, *, #36, .F. ) ;
#63 = CARTESIAN_POINT ( 'NONE',  ( 0.000000000000000000, 0.000000000000000000, 105.0000000000000142 ) ) ;
#64 = COORDINATED_UNIVERSAL_TIME_OFFSET ( 1, 0, .AHEAD. ) ;
#65 = CIRCLE ( 'NONE', #264, 7.000000000000000000 ) ;
#66 = CARTESIAN_POINT ( 'NONE',  ( 0.000000000000000000, 0.000000000000000000, 0.000000000000000000 ) ) ;
#67 = AXIS2_PLACEMENT_3D ( 'NONE', #109, #298, #43 ) ;
#68 = DIRECTION ( 'NONE',  ( -0.000000000000000000, -0.000000000000000000, -1.000000000000000000 ) ) ;
#69 = DIRECTION ( 'NONE',  ( -0.000000000000000000, -0.000000000000000000, -1.000000000000000000 ) ) ;
#70 = APPROVAL_STATUS ( 'not_yet_approved' ) ;
#71 = DIRECTION ( 'NONE',  ( -1.000000000000000000, 0.000000000000000000, 0.000000000000000000 ) ) ;
#72 = DATE_TIME_ROLE ( 'creation_date' ) ;
#73 = DIRECTION ( 'NONE',  ( 0.000000000000000000, 0.000000000000000000, 1.000000000000000000 ) ) ;
#74 = EDGE_CURVE ( 'NONE', #294, #239, #196, .T. ) ;
#75 = FACE_OUTER_BOUND ( 'NONE', #57, .T. ) ;
#76 = DIRECTION ( 'NONE',  ( 1.000000000000000000, 0.000000000000000000, 0.000000000000000000 ) ) ;
#77 = PRODUCT_DEFINITION_SHAPE ( 'NONE', 'NONE',  #101 ) ;
#78 = ADVANCED_FACE ( 'NONE', ( #205 ), #155, .F. ) ;
#79 = LINE ( 'NONE', #153, #131 ) ;
#80 = ORIENTED_EDGE ( 'NONE', *, *, #74, .F. ) ;
#81 = AXIS2_PLACEMENT_3D ( 'NONE', #220, #151, #197 ) ;
#82 = ORIENTED_EDGE ( 'NONE', *, *, #174, .T. ) ;
#83 = ORIENTED_EDGE ( 'NONE', *, *, #272, .F. ) ;
#84 = ORIENTED_EDGE ( 'NONE', *, *, #2, .F. ) ;
#85 = FACE_OUTER_BOUND ( 'NONE', #128, .T. ) ;
#86 = CARTESIAN_POINT ( 'NONE',  ( -4.000000000000000000, 0.000000000000000000, 105.0000000000000142 ) ) ;
#87 = ADVANCED_FACE ( 'NONE', ( #136 ), #273, .T. ) ;
#88 = SHAPE_DEFINITION_REPRESENTATION ( #77, #29 ) ;
#89 = AXIS2_PLACEMENT_3D ( 'NONE', #282, #164, #122 ) ;
#90 = DIRECTION ( 'NONE',  ( 1.000000000000000000, 0.000000000000000000, 0.000000000000000000 ) ) ;
#91 = APPROVAL_ROLE ( '' ) ;
#92 = CARTESIAN_POINT ( 'NONE',  ( -4.000000000000000000, 0.000000000000000000, 105.0000000000000142 ) ) ;
#93 = CALENDAR_DATE ( 2022, 20, 6 ) ;
#94 = ADVANCED_FACE ( 'NONE', ( #85 ), #230, .T. ) ;
#95 = DIRECTION ( 'NONE',  ( 1.000000000000000000, 0.000000000000000000, -0.000000000000000000 ) ) ;
#96 = COORDINATED_UNIVERSAL_TIME_OFFSET ( 1, 0, .AHEAD. ) ;
#97 = APPLICATION_PROTOCOL_DEFINITION ( 'international standard', 'config_control_design', 1994, #6 ) ;
#98 = DIRECTION ( 'NONE',  ( 1.000000000000000000, 0.000000000000000000, 0.000000000000000000 ) ) ;
#99 = ORIENTED_EDGE ( 'NONE', *, *, #146, .T. ) ;
#100 = EDGE_CURVE ( 'NONE', #147, #223, #142, .T. ) ;
#101 = PRODUCT_DEFINITION ( 'NEZNÁMÝ', '', #38, #293 ) ;
#102 = ORIENTED_EDGE ( 'NONE', *, *, #74, .T. ) ;
#103 = AXIS2_PLACEMENT_3D ( 'NONE', #49, #25, #215 ) ;
#104 = VERTEX_POINT ( 'NONE', #227 ) ;
#105 = VERTEX_POINT ( 'NONE', #201 ) ;
#106 = VERTEX_POINT ( 'NONE', #110 ) ;
#107 = FACE_OUTER_BOUND ( 'NONE', #194, .T. ) ;
#108 = CIRCLE ( 'NONE', #281, 0.1999999999999996503 ) ;
#109 = CARTESIAN_POINT ( 'NONE',  ( 0.000000000000000000, 0.000000000000000000, 0.000000000000000000 ) ) ;
#110 = CARTESIAN_POINT ( 'NONE',  ( 7.000000000000000000, 8.572527594031473190E-16, 5.000000000000000000 ) ) ;
#111 =( GEOMETRIC_REPRESENTATION_CONTEXT ( 3 ) GLOBAL_UNCERTAINTY_ASSIGNED_CONTEXT ( ( #152 ) ) GLOBAL_UNIT_ASSIGNED_CONTEXT ( ( #280, #261, #214 ) ) REPRESENTATION_CONTEXT ( 'NONE', 'WORKASPACE' ) );
#112 = DIRECTION ( 'NONE',  ( 0.000000000000000000, 0.000000000000000000, 1.000000000000000000 ) ) ;
#113 = CLOSED_SHELL ( 'NONE', ( #268, #94, #47, #248, #17, #78, #52, #87, #21 ) ) ;
#114 = CYLINDRICAL_SURFACE ( 'NONE', #207, 7.000000000000000000 ) ;
#115 = PERSON_AND_ORGANIZATION ( #169, #301 ) ;
#116 = DIRECTION ( 'NONE',  ( 1.000000000000000000, 0.000000000000000000, 0.000000000000000000 ) ) ;
#117 = DATE_AND_TIME ( #42, #20 ) ;
#118 = CARTESIAN_POINT ( 'NONE',  ( 7.000000000000000000, 8.572527594031473190E-16, 0.000000000000000000 ) ) ;
#119 = VECTOR ( 'NONE', #161, 1000.000000000000000 ) ;
#120 = AXIS2_PLACEMENT_3D ( 'NONE', #295, #167, #217 ) ;
#121 = DIRECTION ( 'NONE',  ( -0.000000000000000000, -0.000000000000000000, -1.000000000000000000 ) ) ;
#122 = DIRECTION ( 'NONE',  ( 1.000000000000000000, 0.000000000000000000, 0.000000000000000000 ) ) ;
#123 = EDGE_LOOP ( 'NONE', ( #12, #219, #59, #145 ) ) ;
#124 = VERTEX_POINT ( 'NONE', #86 ) ;
#125 = CIRCLE ( 'NONE', #103, 4.000000000000000000 ) ;
#126 = DIRECTION ( 'NONE',  ( -1.000000000000000000, 1.224646799147353454E-16, 0.000000000000000000 ) ) ;
#127 = EDGE_LOOP ( 'NONE', ( #99, #9 ) ) ;
#128 = EDGE_LOOP ( 'NONE', ( #150, #289, #175, #265 ) ) ;
#129 = APPROVAL ( #50, 'NEURÈENÝ' ) ;
#130 = DIRECTION ( 'NONE',  ( -0.000000000000000000, -0.000000000000000000, -1.000000000000000000 ) ) ;
#131 = VECTOR ( 'NONE', #130, 1000.000000000000000 ) ;
#132 = DIRECTION ( 'NONE',  ( -0.000000000000000000, -0.000000000000000000, -1.000000000000000000 ) ) ;
#133 = CARTESIAN_POINT ( 'NONE',  ( 0.000000000000000000, 0.000000000000000000, 105.0000000000000142 ) ) ;
#134 = APPROVAL ( #255, 'NEURÈENÝ' ) ;
#135 = CIRCLE ( 'NONE', #154, 7.000000000000000000 ) ;
#136 = FACE_OUTER_BOUND ( 'NONE', #127, .T. ) ;
#137 = CARTESIAN_POINT ( 'NONE',  ( -4.000000000000000000, 0.000000000000000000, 5.199999999999996625 ) ) ;
#138 = COORDINATED_UNIVERSAL_TIME_OFFSET ( 1, 0, .AHEAD. ) ;
#139 = CARTESIAN_POINT ( 'NONE',  ( 0.000000000000000000, 0.000000000000000000, 5.000000000000000000 ) ) ;
#140 = DIRECTION ( 'NONE',  ( -0.000000000000000000, -0.000000000000000000, -1.000000000000000000 ) ) ;
#141 = AXIS2_PLACEMENT_3D ( 'NONE', #176, #203, #300 ) ;
#142 = CIRCLE ( 'NONE', #141, 0.1999999999999996503 ) ;
#143 = DIRECTION ( 'NONE',  ( 1.000000000000000000, 0.000000000000000000, 0.000000000000000000 ) ) ;
#144 = EDGE_CURVE ( 'NONE', #238, #147, #210, .T. ) ;
#145 = ORIENTED_EDGE ( 'NONE', *, *, #260, .T. ) ;
#146 = EDGE_CURVE ( 'NONE', #124, #238, #240, .T. ) ;
#147 = VERTEX_POINT ( 'NONE', #225 ) ;
#148 = EDGE_LOOP ( 'NONE', ( #263, #80 ) ) ;
#149 = CC_DESIGN_SECURITY_CLASSIFICATION ( #290, ( #38 ) ) ;
#150 = ORIENTED_EDGE ( 'NONE', *, *, #243, .F. ) ;
#151 = DIRECTION ( 'NONE',  ( 0.000000000000000000, 0.000000000000000000, 1.000000000000000000 ) ) ;
#152 = UNCERTAINTY_MEASURE_WITH_UNIT (LENGTH_MEASURE( 1.000000000000000082E-05 ), #280, 'distance_accuracy_value', 'NONE');
#153 = CARTESIAN_POINT ( 'NONE',  ( -7.000000000000000000, 0.000000000000000000, 5.000000000000000000 ) ) ;
#154 = AXIS2_PLACEMENT_3D ( 'NONE', #26, #187, #98 ) ;
#155 = PLANE ( 'NONE',  #67 ) ;
#156 = AXIS2_PLACEMENT_3D ( 'NONE', #7, #15, #275 ) ;
#157 = DIRECTION ( 'NONE',  ( 0.000000000000000000, 0.000000000000000000, 1.000000000000000000 ) ) ;
#158 = COORDINATED_UNIVERSAL_TIME_OFFSET ( 1, 0, .AHEAD. ) ;
#159 = DIRECTION ( 'NONE',  ( -1.000000000000000000, 0.000000000000000000, 0.000000000000000000 ) ) ;
#160 = PERSON_AND_ORGANIZATION_ROLE ( 'creator' ) ;
#161 = DIRECTION ( 'NONE',  ( -0.000000000000000000, -0.000000000000000000, -1.000000000000000000 ) ) ;
#162 = PERSON_AND_ORGANIZATION_ROLE ( 'design_supplier' ) ;
#163 = MECHANICAL_CONTEXT ( 'NONE', #257, 'mechanical' ) ;
#164 = DIRECTION ( 'NONE',  ( 0.000000000000000000, 0.000000000000000000, 1.000000000000000000 ) ) ;
#165 = DIRECTION ( 'NONE',  ( 0.000000000000000000, 0.000000000000000000, 1.000000000000000000 ) ) ;
#166 = TOROIDAL_SURFACE ( 'NONE', #56, 4.200000000000000178, 0.2000000000000000111 ) ;
#167 = DIRECTION ( 'NONE',  ( 0.000000000000000000, 0.000000000000000000, 1.000000000000000000 ) ) ;
#168 = LOCAL_TIME ( 11, 49, 51.00000000000000000, #183 ) ;
#169 = PERSON ( 'NEURÈENÝ', 'NEURÈENÝ', 'NEURÈENÝ', ('NEURÈENÝ'), ('NEURÈENÝ'), ('NEURÈENÝ') ) ;
#170 = ORIENTED_EDGE ( 'NONE', *, *, #254, .F. ) ;
#171 = ORIENTED_EDGE ( 'NONE', *, *, #283, .F. ) ;
#172 = FACE_OUTER_BOUND ( 'NONE', #32, .T. ) ;
#173 = AXIS2_PLACEMENT_3D ( 'NONE', #190, #121, #116 ) ;
#174 = EDGE_CURVE ( 'NONE', #104, #106, #246, .T. ) ;
#175 = ORIENTED_EDGE ( 'NONE', *, *, #2, .T. ) ;
#176 = CARTESIAN_POINT ( 'NONE',  ( 4.200000000000000178, 0.000000000000000000, 5.199999999999996625 ) ) ;
#177 = CARTESIAN_POINT ( 'NONE',  ( 0.000000000000000000, 0.000000000000000000, 5.000000000000000000 ) ) ;
#178 = CIRCLE ( 'NONE', #173, 4.200000000000000178 ) ;
#179 = PERSON_AND_ORGANIZATION_ROLE ( 'creator' ) ;
#180 = DIRECTION ( 'NONE',  ( -0.000000000000000000, -0.000000000000000000, -1.000000000000000000 ) ) ;
#181 = SECURITY_CLASSIFICATION_LEVEL ( 'unclassified' ) ;
#182 = DIRECTION ( 'NONE',  ( 1.000000000000000000, 0.000000000000000000, 0.000000000000000000 ) ) ;
#183 = COORDINATED_UNIVERSAL_TIME_OFFSET ( 1, 0, .AHEAD. ) ;
#184 = LINE ( 'NONE', #92, #233 ) ;
#185 = DATE_TIME_ROLE ( 'classification_date' ) ;
#186 = AXIS2_PLACEMENT_3D ( 'NONE', #271, #200, #231 ) ;
#187 = DIRECTION ( 'NONE',  ( 0.000000000000000000, 0.000000000000000000, 1.000000000000000000 ) ) ;
#188 = CARTESIAN_POINT ( 'NONE',  ( 0.000000000000000000, 0.000000000000000000, 0.000000000000000000 ) ) ;
#189 = CC_DESIGN_PERSON_AND_ORGANIZATION_ASSIGNMENT ( #202, #160, ( #38 ) ) ;
#190 = CARTESIAN_POINT ( 'NONE',  ( 0.000000000000000000, 0.000000000000000000, 5.000000000000000000 ) ) ;
#191 = APPROVAL_PERSON_ORGANIZATION ( #115, #218, #91 ) ;
#192 = ORIENTED_EDGE ( 'NONE', *, *, #193, .F. ) ;
#193 = EDGE_CURVE ( 'NONE', #106, #294, #19, .T. ) ;
#194 = EDGE_LOOP ( 'NONE', ( #192, #291, #222, #35 ) ) ;
#195 = ORIENTED_EDGE ( 'NONE', *, *, #10, .T. ) ;
#196 = CIRCLE ( 'NONE', #54, 7.000000000000000000 ) ;
#197 = DIRECTION ( 'NONE',  ( 1.000000000000000000, 0.000000000000000000, 0.000000000000000000 ) ) ;
#198 = EDGE_CURVE ( 'NONE', #124, #241, #184, .T. ) ;
#199 = ORIENTED_EDGE ( 'NONE', *, *, #272, .T. ) ;
#200 = DIRECTION ( 'NONE',  ( 0.000000000000000000, 0.000000000000000000, 1.000000000000000000 ) ) ;
#201 = CARTESIAN_POINT ( 'NONE',  ( -4.200000000000000178, 5.143516556418882928E-16, 4.999999999999998224 ) ) ;
#202 = PERSON_AND_ORGANIZATION ( #169, #301 ) ;
#203 = DIRECTION ( 'NONE',  ( 0.000000000000000000, -1.000000000000000000, 0.000000000000000000 ) ) ;
#204 = CC_DESIGN_APPROVAL ( #218, ( #38 ) ) ;
#205 = FACE_OUTER_BOUND ( 'NONE', #148, .T. ) ;
#206 = PRODUCT ( '6595', '6595', '', ( #163 ) ) ;
#207 = AXIS2_PLACEMENT_3D ( 'NONE', #278, #68, #71 ) ;
#208 = DATE_AND_TIME ( #93, #213 ) ;
#209 = CC_DESIGN_PERSON_AND_ORGANIZATION_ASSIGNMENT ( #1, #259, ( #206 ) ) ;
#210 = LINE ( 'NONE', #41, #8 ) ;
#211 = DATE_AND_TIME ( #274, #27 ) ;
#212 = APPLICATION_PROTOCOL_DEFINITION ( 'international standard', 'config_control_design', 1994, #257 ) ;
#213 = LOCAL_TIME ( 11, 49, 51.00000000000000000, #158 ) ;
#214 =( NAMED_UNIT ( * ) SI_UNIT ( $, .STERADIAN. ) SOLID_ANGLE_UNIT ( ) );
#215 = DIRECTION ( 'NONE',  ( 1.000000000000000000, 0.000000000000000000, 0.000000000000000000 ) ) ;
#216 = APPROVAL_PERSON_ORGANIZATION ( #306, #134, #48 ) ;
#217 = DIRECTION ( 'NONE',  ( 1.000000000000000000, 0.000000000000000000, -0.000000000000000000 ) ) ;
#218 = APPROVAL ( #70, 'NEURÈENÝ' ) ;
#219 = ORIENTED_EDGE ( 'NONE', *, *, #146, .F. ) ;
#220 = CARTESIAN_POINT ( 'NONE',  ( 0.000000000000000000, 0.000000000000000000, 5.199999999999996625 ) ) ;
#221 = PRODUCT_RELATED_PRODUCT_CATEGORY ( 'detail', '', ( #206 ) ) ;
#222 = ORIENTED_EDGE ( 'NONE', *, *, #36, .T. ) ;
#223 = VERTEX_POINT ( 'NONE', #253 ) ;
#224 = AXIS2_PLACEMENT_3D ( 'NONE', #285, #140, #236 ) ;
#225 = CARTESIAN_POINT ( 'NONE',  ( 4.000000000000000000, 4.898587196589412829E-16, 5.199999999999996625 ) ) ;
#226 = PERSON_AND_ORGANIZATION_ROLE ( 'classification_officer' ) ;
#227 = CARTESIAN_POINT ( 'NONE',  ( -7.000000000000000000, 0.000000000000000000, 5.000000000000000000 ) ) ;
#228 = DIRECTION ( 'NONE',  ( 0.000000000000000000, 0.000000000000000000, 1.000000000000000000 ) ) ;
#229 = AXIS2_PLACEMENT_3D ( 'NONE', #139, #232, #4 ) ;
#230 = CYLINDRICAL_SURFACE ( 'NONE', #288, 4.000000000000000000 ) ;
#231 = DIRECTION ( 'NONE',  ( 1.000000000000000000, 0.000000000000000000, 0.000000000000000000 ) ) ;
#232 = DIRECTION ( 'NONE',  ( -0.000000000000000000, -0.000000000000000000, -1.000000000000000000 ) ) ;
#233 = VECTOR ( 'NONE', #69, 1000.000000000000000 ) ;
#234 = APPROVAL_ROLE ( '' ) ;
#235 = AXIS2_PLACEMENT_3D ( 'NONE', #63, #157, #95 ) ;
#236 = DIRECTION ( 'NONE',  ( 1.000000000000000000, 0.000000000000000000, 0.000000000000000000 ) ) ;
#237 = EDGE_LOOP ( 'NONE', ( #199, #266 ) ) ;
#238 = VERTEX_POINT ( 'NONE', #44 ) ;
#239 = VERTEX_POINT ( 'NONE', #305 ) ;
#240 = CIRCLE ( 'NONE', #5, 4.000000000000000000 ) ;
#241 = VERTEX_POINT ( 'NONE', #137 ) ;
#242 = TOROIDAL_SURFACE ( 'NONE', #156, 4.200000000000000178, 0.2000000000000000111 ) ;
#243 = EDGE_CURVE ( 'NONE', #238, #124, #13, .T. ) ;
#244 = CARTESIAN_POINT ( 'NONE',  ( -4.200000000000000178, 5.143516556418882928E-16, 5.199999999999996625 ) ) ;
#245 = DIRECTION ( 'NONE',  ( -0.000000000000000000, -0.000000000000000000, -1.000000000000000000 ) ) ;
#246 = CIRCLE ( 'NONE', #45, 7.000000000000000000 ) ;
#247 = APPROVAL_DATE_TIME ( #211, #218 ) ;
#248 = ADVANCED_FACE ( 'NONE', ( #107 ), #297, .T. ) ;
#249 = CC_DESIGN_PERSON_AND_ORGANIZATION_ASSIGNMENT ( #251, #162, ( #38 ) ) ;
#250 = DIRECTION ( 'NONE',  ( 0.000000000000000000, 0.000000000000000000, 1.000000000000000000 ) ) ;
#251 = PERSON_AND_ORGANIZATION ( #169, #301 ) ;
#252 = CYLINDRICAL_SURFACE ( 'NONE', #292, 4.000000000000000000 ) ;
#253 = CARTESIAN_POINT ( 'NONE',  ( 4.200000000000000178, 0.000000000000000000, 4.999999999999998224 ) ) ;
#254 = EDGE_CURVE ( 'NONE', #106, #104, #135, .T. ) ;
#255 = APPROVAL_STATUS ( 'not_yet_approved' ) ;
#256 = FACE_OUTER_BOUND ( 'NONE', #296, .T. ) ;
#257 = APPLICATION_CONTEXT ( 'configuration controlled 3d designs of mechanical parts and assemblies' ) ;
#258 = EDGE_CURVE ( 'NONE', #239, #294, #65, .T. ) ;
#259 = PERSON_AND_ORGANIZATION_ROLE ( 'design_owner' ) ;
#260 = EDGE_CURVE ( 'NONE', #241, #147, #125, .T. ) ;
#261 =( NAMED_UNIT ( * ) PLANE_ANGLE_UNIT ( ) SI_UNIT ( $, .RADIAN. ) );
#262 = CC_DESIGN_PERSON_AND_ORGANIZATION_ASSIGNMENT ( #302, #179, ( #101 ) ) ;
#263 = ORIENTED_EDGE ( 'NONE', *, *, #258, .F. ) ;
#264 = AXIS2_PLACEMENT_3D ( 'NONE', #188, #73, #76 ) ;
#265 = ORIENTED_EDGE ( 'NONE', *, *, #198, .F. ) ;
#266 = ORIENTED_EDGE ( 'NONE', *, *, #283, .T. ) ;
#267 = ORIENTED_EDGE ( 'NONE', *, *, #254, .T. ) ;
#268 = ADVANCED_FACE ( 'NONE', ( #75 ), #166, .F. ) ;
#269 = ORIENTED_EDGE ( 'NONE', *, *, #100, .F. ) ;
#270 = EDGE_LOOP ( 'NONE', ( #287, #84, #58, #171 ) ) ;
#271 = CARTESIAN_POINT ( 'NONE',  ( 0.000000000000000000, 0.000000000000000000, 105.0000000000000142 ) ) ;
#272 = EDGE_CURVE ( 'NONE', #223, #105, #178, .T. ) ;
#273 = PLANE ( 'NONE',  #235 ) ;
#274 = CALENDAR_DATE ( 2022, 20, 6 ) ;
#275 = DIRECTION ( 'NONE',  ( 1.000000000000000000, 0.000000000000000000, 0.000000000000000000 ) ) ;
#276 = PERSON_AND_ORGANIZATION ( #169, #301 ) ;
#277 = DIRECTION ( 'NONE',  ( 1.000000000000000000, 0.000000000000000000, 0.000000000000000000 ) ) ;
#278 = CARTESIAN_POINT ( 'NONE',  ( 0.000000000000000000, 0.000000000000000000, 5.000000000000000000 ) ) ;
#279 = APPROVAL_DATE_TIME ( #304, #134 ) ;
#280 =( LENGTH_UNIT ( ) NAMED_UNIT ( * ) SI_UNIT ( .MILLI., .METRE. ) );
#281 = AXIS2_PLACEMENT_3D ( 'NONE', #244, #34, #126 ) ;
#282 = CARTESIAN_POINT ( 'NONE',  ( 0.000000000000000000, 0.000000000000000000, 0.000000000000000000 ) ) ;
#283 = EDGE_CURVE ( 'NONE', #105, #223, #51, .T. ) ;
#284 = CC_DESIGN_PERSON_AND_ORGANIZATION_ASSIGNMENT ( #276, #226, ( #290 ) ) ;
#285 = CARTESIAN_POINT ( 'NONE',  ( 0.000000000000000000, 0.000000000000000000, 5.000000000000000000 ) ) ;
#286 = CC_DESIGN_APPROVAL ( #134, ( #290 ) ) ;
#287 = ORIENTED_EDGE ( 'NONE', *, *, #10, .F. ) ;
#288 = AXIS2_PLACEMENT_3D ( 'NONE', #22, #245, #46 ) ;
#289 = ORIENTED_EDGE ( 'NONE', *, *, #144, .T. ) ;
#290 = SECURITY_CLASSIFICATION ( '', '', #181 ) ;
#291 = ORIENTED_EDGE ( 'NONE', *, *, #174, .F. ) ;
#292 = AXIS2_PLACEMENT_3D ( 'NONE', #133, #132, #159 ) ;
#293 = DESIGN_CONTEXT ( 'detailed design', #6, 'design' ) ;
#294 = VERTEX_POINT ( 'NONE', #118 ) ;
#295 = CARTESIAN_POINT ( 'NONE',  ( 0.000000000000000000, 0.000000000000000000, 5.000000000000000000 ) ) ;
#296 = EDGE_LOOP ( 'NONE', ( #170, #31, #102, #62 ) ) ;
#297 = CYLINDRICAL_SURFACE ( 'NONE', #229, 7.000000000000000000 ) ;
#298 = DIRECTION ( 'NONE',  ( 0.000000000000000000, 0.000000000000000000, 1.000000000000000000 ) ) ;
#299 = APPROVAL_DATE_TIME ( #117, #129 ) ;
#300 = DIRECTION ( 'NONE',  ( 0.000000000000000000, 0.000000000000000000, -1.000000000000000000 ) ) ;
#301 = ORGANIZATION ( 'NEURÈENÝ', 'NEURÈENÝ', '' ) ;
#302 = PERSON_AND_ORGANIZATION ( #169, #301 ) ;
#303 = CARTESIAN_POINT ( 'NONE',  ( 7.000000000000000000, 8.572527594031473190E-16, 5.000000000000000000 ) ) ;
#304 = DATE_AND_TIME ( #40, #60 ) ;
#305 = CARTESIAN_POINT ( 'NONE',  ( -7.000000000000000000, 0.000000000000000000, 0.000000000000000000 ) ) ;
#306 = PERSON_AND_ORGANIZATION ( #169, #301 ) ;
#307 = APPROVAL_PERSON_ORGANIZATION ( #28, #129, #234 ) ;
ENDSEC;
END-ISO-10303-21;
