ISO-10303-21;
HEADER;
FILE_DESCRIPTION (( 'STEP AP203' ),
    '1' );
FILE_NAME ('beb2.STEP',
    '2022-06-20T09:25:13',
    ( '' ),
    ( '' ),
    'SwSTEP 2.0',
    'SolidWorks 2019',
    '' );
FILE_SCHEMA (( 'CONFIG_CONTROL_DESIGN' ));
ENDSEC;

DATA;
#1 = DIRECTION ( 'NONE',  ( -0.000000000000000000, -0.000000000000000000, -1.000000000000000000 ) ) ;
#2 = APPROVAL_PERSON_ORGANIZATION ( #35, #156, #275 ) ;
#3 = CARTESIAN_POINT ( 'NONE',  ( 0.000000000000000000, 0.000000000000000000, 7.000000000000000000 ) ) ;
#4 = FACE_OUTER_BOUND ( 'NONE', #282, .T. ) ;
#5 = APPLICATION_PROTOCOL_DEFINITION ( 'international standard', 'config_control_design', 1994, #292 ) ;
#6 = AXIS2_PLACEMENT_3D ( 'NONE', #108, #19, #37 ) ;
#7 = CARTESIAN_POINT ( 'NONE',  ( 7.000000000000000888, 8.572527594031474176E-16, 7.200000000000095213 ) ) ;
#8 = TOROIDAL_SURFACE ( 'NONE', #50, 7.200000000000001066, 0.2000000000000000111 ) ;
#9 = APPROVAL_DATE_TIME ( #148, #187 ) ;
#10 = ORIENTED_EDGE ( 'NONE', *, *, #165, .T. ) ;
#11 = DATE_AND_TIME ( #105, #195 ) ;
#12 = CC_DESIGN_PERSON_AND_ORGANIZATION_ASSIGNMENT ( #127, #144, ( #235 ) ) ;
#13 = UNCERTAINTY_MEASURE_WITH_UNIT (LENGTH_MEASURE( 1.000000000000000082E-05 ), #53, 'distance_accuracy_value', 'NONE');
#14 = PERSON_AND_ORGANIZATION ( #261, #161 ) ;
#15 = FACE_OUTER_BOUND ( 'NONE', #118, .T. ) ;
#16 = ORIENTED_EDGE ( 'NONE', *, *, #116, .T. ) ;
#17 = ADVANCED_FACE ( 'NONE', ( #222 ), #8, .F. ) ;
#18 = CARTESIAN_POINT ( 'NONE',  ( 0.000000000000000000, 0.000000000000000000, 7.200000000000095213 ) ) ;
#19 = DIRECTION ( 'NONE',  ( 1.224646799147353207E-16, 1.000000000000000000, -0.000000000000000000 ) ) ;
#20 = ORIENTED_EDGE ( 'NONE', *, *, #219, .F. ) ;
#21 = DIRECTION ( 'NONE',  ( 1.000000000000000000, 0.000000000000000000, 0.000000000000000000 ) ) ;
#22 = CARTESIAN_POINT ( 'NONE',  ( 0.000000000000000000, 0.000000000000000000, 7.000000000000000000 ) ) ;
#23 = DIRECTION ( 'NONE',  ( 1.000000000000000000, 0.000000000000000000, 0.000000000000000000 ) ) ;
#24 = AXIS2_PLACEMENT_3D ( 'NONE', #134, #227, #281 ) ;
#25 = CIRCLE ( 'NONE', #186, 7.000000000000000888 ) ;
#26 = CC_DESIGN_DATE_AND_TIME_ASSIGNMENT ( #58, #223, ( #235 ) ) ;
#27 = APPROVAL_PERSON_ORGANIZATION ( #123, #302, #247 ) ;
#28 = ADVANCED_BREP_SHAPE_REPRESENTATION ( 'beb2', ( #126, #256 ), #215 ) ;
#29 = PRODUCT_DEFINITION_SHAPE ( 'NONE', 'NONE',  #235 ) ;
#30 = CARTESIAN_POINT ( 'NONE',  ( 0.000000000000000000, 0.000000000000000000, 7.000000000000000000 ) ) ;
#31 = CC_DESIGN_DATE_AND_TIME_ASSIGNMENT ( #124, #84, ( #214 ) ) ;
#32 = VECTOR ( 'NONE', #143, 1000.000000000000000 ) ;
#33 = LINE ( 'NONE', #285, #288 ) ;
#34 = EDGE_LOOP ( 'NONE', ( #98, #16 ) ) ;
#35 = PERSON_AND_ORGANIZATION ( #261, #161 ) ;
#36 = APPLICATION_CONTEXT ( 'configuration controlled 3d designs of mechanical parts and assemblies' ) ;
#37 = DIRECTION ( 'NONE',  ( -1.000000000000000000, 1.224646799147358384E-16, 0.000000000000000000 ) ) ;
#38 = VERTEX_POINT ( 'NONE', #89 ) ;
#39 = COORDINATED_UNIVERSAL_TIME_OFFSET ( 1, 0, .AHEAD. ) ;
#40 = DIRECTION ( 'NONE',  ( 1.000000000000000000, 0.000000000000000000, -0.000000000000000000 ) ) ;
#41 = DIRECTION ( 'NONE',  ( 0.000000000000000000, 0.000000000000000000, 1.000000000000000000 ) ) ;
#42 = ADVANCED_FACE ( 'NONE', ( #91, #295 ), #158, .T. ) ;
#43 = FACE_OUTER_BOUND ( 'NONE', #226, .T. ) ;
#44 = DIRECTION ( 'NONE',  ( 1.000000000000000000, 0.000000000000000000, 0.000000000000000000 ) ) ;
#45 = DIRECTION ( 'NONE',  ( 1.000000000000000000, 0.000000000000000000, 0.000000000000000000 ) ) ;
#46 = DIRECTION ( 'NONE',  ( -1.000000000000000000, 0.000000000000000000, 0.000000000000000000 ) ) ;
#47 = ORIENTED_EDGE ( 'NONE', *, *, #201, .T. ) ;
#48 =( NAMED_UNIT ( * ) SI_UNIT ( $, .STERADIAN. ) SOLID_ANGLE_UNIT ( ) );
#49 = EDGE_CURVE ( 'NONE', #176, #76, #56, .T. ) ;
#50 = AXIS2_PLACEMENT_3D ( 'NONE', #18, #66, #45 ) ;
#51 = AXIS2_PLACEMENT_3D ( 'NONE', #279, #184, #178 ) ;
#52 = CARTESIAN_POINT ( 'NONE',  ( 0.000000000000000000, 0.000000000000000000, 0.000000000000000000 ) ) ;
#53 =( LENGTH_UNIT ( ) NAMED_UNIT ( * ) SI_UNIT ( .MILLI., .METRE. ) );
#54 = CC_DESIGN_PERSON_AND_ORGANIZATION_ASSIGNMENT ( #14, #174, ( #221 ) ) ;
#55 = EDGE_LOOP ( 'NONE', ( #230, #209, #96, #131 ) ) ;
#56 = CIRCLE ( 'NONE', #51, 11.00000000000000000 ) ;
#57 = CARTESIAN_POINT ( 'NONE',  ( 7.000000000000000888, 8.572527594031474176E-16, 1206.999999999999773 ) ) ;
#58 = DATE_AND_TIME ( #287, #135 ) ;
#59 = DIRECTION ( 'NONE',  ( -0.000000000000000000, -0.000000000000000000, -1.000000000000000000 ) ) ;
#60 = ORIENTED_EDGE ( 'NONE', *, *, #231, .F. ) ;
#61 = PERSON_AND_ORGANIZATION_ROLE ( 'creator' ) ;
#62 = DIRECTION ( 'NONE',  ( -0.000000000000000000, -0.000000000000000000, -1.000000000000000000 ) ) ;
#63 = CALENDAR_DATE ( 2022, 20, 6 ) ;
#64 = CARTESIAN_POINT ( 'NONE',  ( 0.000000000000000000, 0.000000000000000000, 1206.999999999999773 ) ) ;
#65 = CARTESIAN_POINT ( 'NONE',  ( -11.00000000000000000, 0.000000000000000000, 0.000000000000000000 ) ) ;
#66 = DIRECTION ( 'NONE',  ( 0.000000000000000000, 0.000000000000000000, 1.000000000000000000 ) ) ;
#67 = SHAPE_DEFINITION_REPRESENTATION ( #29, #28 ) ;
#68 = AXIS2_PLACEMENT_3D ( 'NONE', #200, #85, #46 ) ;
#69 = EDGE_LOOP ( 'NONE', ( #202, #125 ) ) ;
#70 = FACE_OUTER_BOUND ( 'NONE', #72, .T. ) ;
#71 = CARTESIAN_POINT ( 'NONE',  ( 0.000000000000000000, 0.000000000000000000, 7.200000000000095213 ) ) ;
#72 = EDGE_LOOP ( 'NONE', ( #289, #83, #272, #192 ) ) ;
#73 = MECHANICAL_CONTEXT ( 'NONE', #292, 'mechanical' ) ;
#74 = EDGE_CURVE ( 'NONE', #264, #38, #244, .T. ) ;
#75 = AXIS2_PLACEMENT_3D ( 'NONE', #71, #273, #173 ) ;
#76 = VERTEX_POINT ( 'NONE', #277 ) ;
#77 = DIRECTION ( 'NONE',  ( -1.000000000000000000, 0.000000000000000000, 0.000000000000000000 ) ) ;
#78 = COORDINATED_UNIVERSAL_TIME_OFFSET ( 1, 0, .AHEAD. ) ;
#79 = ADVANCED_FACE ( 'NONE', ( #70 ), #252, .T. ) ;
#80 = DIRECTION ( 'NONE',  ( -0.000000000000000000, -0.000000000000000000, -1.000000000000000000 ) ) ;
#81 = CARTESIAN_POINT ( 'NONE',  ( 0.000000000000000000, 0.000000000000000000, 7.000000000000000000 ) ) ;
#82 = EDGE_CURVE ( 'NONE', #38, #76, #255, .T. ) ;
#83 = ORIENTED_EDGE ( 'NONE', *, *, #74, .F. ) ;
#84 = DATE_TIME_ROLE ( 'classification_date' ) ;
#85 = DIRECTION ( 'NONE',  ( -0.000000000000000000, -0.000000000000000000, -1.000000000000000000 ) ) ;
#86 = DIRECTION ( 'NONE',  ( 0.000000000000000000, 0.000000000000000000, 1.000000000000000000 ) ) ;
#87 = CC_DESIGN_APPROVAL ( #187, ( #221 ) ) ;
#88 = PLANE ( 'NONE',  #180 ) ;
#89 = CARTESIAN_POINT ( 'NONE',  ( 11.00000000000000000, 1.347111479062088405E-15, 7.000000000000000000 ) ) ;
#90 = CARTESIAN_POINT ( 'NONE',  ( -7.200000000000001066, 8.817456953860944275E-16, 7.000000000000047962 ) ) ;
#91 = FACE_BOUND ( 'NONE', #185, .T. ) ;
#92 = CC_DESIGN_PERSON_AND_ORGANIZATION_ASSIGNMENT ( #246, #220, ( #214 ) ) ;
#93 = ORIENTED_EDGE ( 'NONE', *, *, #114, .T. ) ;
#94 = EDGE_CURVE ( 'NONE', #298, #171, #163, .T. ) ;
#95 = CIRCLE ( 'NONE', #262, 7.000000000000000888 ) ;
#96 = ORIENTED_EDGE ( 'NONE', *, *, #168, .T. ) ;
#97 = ORIENTED_EDGE ( 'NONE', *, *, #112, .F. ) ;
#98 = ORIENTED_EDGE ( 'NONE', *, *, #74, .T. ) ;
#99 = CALENDAR_DATE ( 2022, 20, 6 ) ;
#100 = PERSON_AND_ORGANIZATION ( #261, #161 ) ;
#101 = TOROIDAL_SURFACE ( 'NONE', #75, 7.200000000000001066, 0.2000000000000000111 ) ;
#102 = EDGE_CURVE ( 'NONE', #264, #176, #169, .T. ) ;
#103 = CARTESIAN_POINT ( 'NONE',  ( 0.000000000000000000, 0.000000000000000000, 7.000000000000000000 ) ) ;
#104 = EDGE_LOOP ( 'NONE', ( #274, #216, #137, #20 ) ) ;
#105 = CALENDAR_DATE ( 2022, 20, 6 ) ;
#106 = DIRECTION ( 'NONE',  ( 0.000000000000000000, 0.000000000000000000, -1.000000000000000000 ) ) ;
#107 = VERTEX_POINT ( 'NONE', #57 ) ;
#108 = CARTESIAN_POINT ( 'NONE',  ( -7.200000000000001066, 8.817456953860944275E-16, 7.200000000000095213 ) ) ;
#109 = AXIS2_PLACEMENT_3D ( 'NONE', #241, #122, #77 ) ;
#110 = ORIENTED_EDGE ( 'NONE', *, *, #291, .F. ) ;
#111 = CYLINDRICAL_SURFACE ( 'NONE', #170, 11.00000000000000000 ) ;
#112 = EDGE_CURVE ( 'NONE', #107, #129, #33, .T. ) ;
#113 = DIRECTION ( 'NONE',  ( 1.000000000000000000, 0.000000000000000000, 0.000000000000000000 ) ) ;
#114 = EDGE_CURVE ( 'NONE', #129, #160, #211, .T. ) ;
#115 = AXIS2_PLACEMENT_3D ( 'NONE', #103, #80, #44 ) ;
#116 = EDGE_CURVE ( 'NONE', #38, #264, #232, .T. ) ;
#117 = DIRECTION ( 'NONE',  ( 0.000000000000000000, 0.000000000000000000, 1.000000000000000000 ) ) ;
#118 = EDGE_LOOP ( 'NONE', ( #97, #110, #306, #47 ) ) ;
#119 = DIRECTION ( 'NONE',  ( 1.000000000000000000, 0.000000000000000000, 0.000000000000000000 ) ) ;
#120 = LOCAL_TIME ( 11, 25, 13.00000000000000000, #153 ) ;
#121 = EDGE_LOOP ( 'NONE', ( #208, #245, #189, #162 ) ) ;
#122 = DIRECTION ( 'NONE',  ( -0.000000000000000000, -0.000000000000000000, -1.000000000000000000 ) ) ;
#123 = PERSON_AND_ORGANIZATION ( #261, #161 ) ;
#124 = DATE_AND_TIME ( #296, #283 ) ;
#125 = ORIENTED_EDGE ( 'NONE', *, *, #168, .F. ) ;
#126 = MANIFOLD_SOLID_BREP ( 'Zaoblit1', #140 ) ;
#127 = PERSON_AND_ORGANIZATION ( #261, #161 ) ;
#128 = FACE_OUTER_BOUND ( 'NONE', #55, .T. ) ;
#129 = VERTEX_POINT ( 'NONE', #7 ) ;
#130 = DIRECTION ( 'NONE',  ( 0.000000000000000000, 0.000000000000000000, 1.000000000000000000 ) ) ;
#131 = ORIENTED_EDGE ( 'NONE', *, *, #102, .F. ) ;
#132 = DIRECTION ( 'NONE',  ( 0.000000000000000000, 0.000000000000000000, 1.000000000000000000 ) ) ;
#133 = ADVANCED_FACE ( 'NONE', ( #4 ), #190, .T. ) ;
#134 = CARTESIAN_POINT ( 'NONE',  ( 0.000000000000000000, 0.000000000000000000, 7.000000000000000000 ) ) ;
#135 = LOCAL_TIME ( 11, 25, 13.00000000000000000, #268 ) ;
#136 = DIRECTION ( 'NONE',  ( 0.000000000000000000, 0.000000000000000000, 1.000000000000000000 ) ) ;
#137 = ORIENTED_EDGE ( 'NONE', *, *, #94, .F. ) ;
#138 = EDGE_CURVE ( 'NONE', #198, #160, #167, .T. ) ;
#139 = PRODUCT ( 'beb2', 'beb2', '', ( #73 ) ) ;
#140 = CLOSED_SHELL ( 'NONE', ( #17, #133, #284, #79, #42, #271, #286, #193, #210 ) ) ;
#141 = CC_DESIGN_PERSON_AND_ORGANIZATION_ASSIGNMENT ( #194, #61, ( #221 ) ) ;
#142 = CIRCLE ( 'NONE', #115, 7.200000000000001066 ) ;
#143 = DIRECTION ( 'NONE',  ( -0.000000000000000000, -0.000000000000000000, -1.000000000000000000 ) ) ;
#144 = PERSON_AND_ORGANIZATION_ROLE ( 'creator' ) ;
#145 = CARTESIAN_POINT ( 'NONE',  ( 0.000000000000000000, 0.000000000000000000, 7.200000000000095213 ) ) ;
#146 = APPROVAL_STATUS ( 'not_yet_approved' ) ;
#147 = CARTESIAN_POINT ( 'NONE',  ( -11.00000000000000000, 0.000000000000000000, 7.000000000000000000 ) ) ;
#148 = DATE_AND_TIME ( #63, #120 ) ;
#149 = CARTESIAN_POINT ( 'NONE',  ( 7.200000000000001066, 0.000000000000000000, 7.000000000000047962 ) ) ;
#150 = APPLICATION_PROTOCOL_DEFINITION ( 'international standard', 'config_control_design', 1994, #36 ) ;
#151 = DIRECTION ( 'NONE',  ( 0.000000000000000000, -1.000000000000000000, 0.000000000000000000 ) ) ;
#152 = DIRECTION ( 'NONE',  ( 1.000000000000000000, 0.000000000000000000, -0.000000000000000000 ) ) ;
#153 = COORDINATED_UNIVERSAL_TIME_OFFSET ( 1, 0, .AHEAD. ) ;
#154 = CARTESIAN_POINT ( 'NONE',  ( 7.200000000000001066, 0.000000000000000000, 7.200000000000095213 ) ) ;
#155 = DESIGN_CONTEXT ( 'detailed design', #36, 'design' ) ;
#156 = APPROVAL ( #239, 'NEURÈENÝ' ) ;
#157 = CARTESIAN_POINT ( 'NONE',  ( -7.000000000000000888, 0.000000000000000000, 7.200000000000095213 ) ) ;
#158 = PLANE ( 'NONE',  #243 ) ;
#159 = CARTESIAN_POINT ( 'NONE',  ( -11.00000000000000000, 0.000000000000000000, 7.000000000000000000 ) ) ;
#160 = VERTEX_POINT ( 'NONE', #157 ) ;
#161 = ORGANIZATION ( 'NEURÈENÝ', 'NEURÈENÝ', '' ) ;
#162 = ORIENTED_EDGE ( 'NONE', *, *, #165, .F. ) ;
#163 = CIRCLE ( 'NONE', #253, 7.200000000000001066 ) ;
#164 = CC_DESIGN_APPROVAL ( #302, ( #235 ) ) ;
#165 = EDGE_CURVE ( 'NONE', #171, #298, #142, .T. ) ;
#166 = DIRECTION ( 'NONE',  ( 1.000000000000000000, 0.000000000000000000, 0.000000000000000000 ) ) ;
#167 = LINE ( 'NONE', #263, #238 ) ;
#168 = EDGE_CURVE ( 'NONE', #76, #176, #229, .T. ) ;
#169 = LINE ( 'NONE', #147, #32 ) ;
#170 = AXIS2_PLACEMENT_3D ( 'NONE', #81, #224, #207 ) ;
#171 = VERTEX_POINT ( 'NONE', #90 ) ;
#172 = PERSON_AND_ORGANIZATION_ROLE ( 'design_owner' ) ;
#173 = DIRECTION ( 'NONE',  ( 1.000000000000000000, 0.000000000000000000, 0.000000000000000000 ) ) ;
#174 = PERSON_AND_ORGANIZATION_ROLE ( 'design_supplier' ) ;
#175 = DIRECTION ( 'NONE',  ( 0.000000000000000000, 0.000000000000000000, 1.000000000000000000 ) ) ;
#176 = VERTEX_POINT ( 'NONE', #65 ) ;
#177 = DIRECTION ( 'NONE',  ( -0.000000000000000000, -0.000000000000000000, -1.000000000000000000 ) ) ;
#178 = DIRECTION ( 'NONE',  ( 1.000000000000000000, 0.000000000000000000, 0.000000000000000000 ) ) ;
#179 = CC_DESIGN_PERSON_AND_ORGANIZATION_ASSIGNMENT ( #100, #172, ( #139 ) ) ;
#180 = AXIS2_PLACEMENT_3D ( 'NONE', #278, #132, #40 ) ;
#181 = CARTESIAN_POINT ( 'NONE',  ( 0.000000000000000000, 0.000000000000000000, 0.000000000000000000 ) ) ;
#182 = ORIENTED_EDGE ( 'NONE', *, *, #94, .T. ) ;
#183 = DIRECTION ( 'NONE',  ( 0.000000000000000000, 0.000000000000000000, 1.000000000000000000 ) ) ;
#184 = DIRECTION ( 'NONE',  ( 0.000000000000000000, 0.000000000000000000, 1.000000000000000000 ) ) ;
#185 = EDGE_LOOP ( 'NONE', ( #182, #10 ) ) ;
#186 = AXIS2_PLACEMENT_3D ( 'NONE', #303, #183, #297 ) ;
#187 = APPROVAL ( #293, 'NEURÈENÝ' ) ;
#188 = AXIS2_PLACEMENT_3D ( 'NONE', #64, #136, #113 ) ;
#189 = ORIENTED_EDGE ( 'NONE', *, *, #219, .T. ) ;
#190 = CYLINDRICAL_SURFACE ( 'NONE', #109, 7.000000000000000888 ) ;
#191 = ORIENTED_EDGE ( 'NONE', *, *, #231, .T. ) ;
#192 = ORIENTED_EDGE ( 'NONE', *, *, #49, .T. ) ;
#193 = ADVANCED_FACE ( 'NONE', ( #43 ), #280, .T. ) ;
#194 = PERSON_AND_ORGANIZATION ( #261, #161 ) ;
#195 = LOCAL_TIME ( 11, 25, 13.00000000000000000, #39 ) ;
#196 = SECURITY_CLASSIFICATION_LEVEL ( 'unclassified' ) ;
#197 = DIRECTION ( 'NONE',  ( 0.000000000000000000, 0.000000000000000000, 1.000000000000000000 ) ) ;
#198 = VERTEX_POINT ( 'NONE', #276 ) ;
#199 = PERSON_AND_ORGANIZATION ( #261, #161 ) ;
#200 = CARTESIAN_POINT ( 'NONE',  ( 0.000000000000000000, 0.000000000000000000, 1206.999999999999773 ) ) ;
#201 = EDGE_CURVE ( 'NONE', #160, #129, #25, .T. ) ;
#202 = ORIENTED_EDGE ( 'NONE', *, *, #49, .F. ) ;
#203 = AXIS2_PLACEMENT_3D ( 'NONE', #145, #260, #237 ) ;
#204 = FACE_OUTER_BOUND ( 'NONE', #69, .T. ) ;
#205 = ORIENTED_EDGE ( 'NONE', *, *, #112, .T. ) ;
#206 = AXIS2_PLACEMENT_3D ( 'NONE', #181, #197, #21 ) ;
#207 = DIRECTION ( 'NONE',  ( -1.000000000000000000, 0.000000000000000000, 0.000000000000000000 ) ) ;
#208 = ORIENTED_EDGE ( 'NONE', *, *, #234, .F. ) ;
#209 = ORIENTED_EDGE ( 'NONE', *, *, #82, .T. ) ;
#210 = ADVANCED_FACE ( 'NONE', ( #294 ), #101, .F. ) ;
#211 = CIRCLE ( 'NONE', #203, 7.000000000000000888 ) ;
#212 = APPROVAL_PERSON_ORGANIZATION ( #199, #187, #242 ) ;
#213 = CARTESIAN_POINT ( 'NONE',  ( 11.00000000000000000, 1.347111479062088405E-15, 7.000000000000000000 ) ) ;
#214 = SECURITY_CLASSIFICATION ( '', '', #196 ) ;
#215 =( GEOMETRIC_REPRESENTATION_CONTEXT ( 3 ) GLOBAL_UNCERTAINTY_ASSIGNED_CONTEXT ( ( #13 ) ) GLOBAL_UNIT_ASSIGNED_CONTEXT ( ( #53, #236, #48 ) ) REPRESENTATION_CONTEXT ( 'NONE', 'WORKASPACE' ) );
#216 = ORIENTED_EDGE ( 'NONE', *, *, #234, .T. ) ;
#217 = AXIS2_PLACEMENT_3D ( 'NONE', #270, #175, #250 ) ;
#218 = APPROVAL_DATE_TIME ( #11, #302 ) ;
#219 = EDGE_CURVE ( 'NONE', #129, #298, #240, .T. ) ;
#220 = PERSON_AND_ORGANIZATION_ROLE ( 'classification_officer' ) ;
#221 = PRODUCT_DEFINITION_FORMATION_WITH_SPECIFIED_SOURCE ( 'LIBOVOLNÝ', '', #139, .NOT_KNOWN. ) ;
#222 = FACE_OUTER_BOUND ( 'NONE', #104, .T. ) ;
#223 = DATE_TIME_ROLE ( 'creation_date' ) ;
#224 = DIRECTION ( 'NONE',  ( -0.000000000000000000, -0.000000000000000000, -1.000000000000000000 ) ) ;
#225 = DIRECTION ( 'NONE',  ( 1.000000000000000000, 0.000000000000000000, 0.000000000000000000 ) ) ;
#226 = EDGE_LOOP ( 'NONE', ( #251, #191 ) ) ;
#227 = DIRECTION ( 'NONE',  ( -0.000000000000000000, -0.000000000000000000, -1.000000000000000000 ) ) ;
#228 = LOCAL_TIME ( 11, 25, 13.00000000000000000, #78 ) ;
#229 = CIRCLE ( 'NONE', #206, 11.00000000000000000 ) ;
#230 = ORIENTED_EDGE ( 'NONE', *, *, #116, .F. ) ;
#231 = EDGE_CURVE ( 'NONE', #107, #198, #95, .T. ) ;
#232 = CIRCLE ( 'NONE', #307, 11.00000000000000000 ) ;
#233 = CIRCLE ( 'NONE', #188, 7.000000000000000888 ) ;
#234 = EDGE_CURVE ( 'NONE', #160, #171, #267, .T. ) ;
#235 = PRODUCT_DEFINITION ( 'NEZNÁMÝ', '', #221, #155 ) ;
#236 =( NAMED_UNIT ( * ) PLANE_ANGLE_UNIT ( ) SI_UNIT ( $, .RADIAN. ) );
#237 = DIRECTION ( 'NONE',  ( 1.000000000000000000, 0.000000000000000000, 0.000000000000000000 ) ) ;
#238 = VECTOR ( 'NONE', #177, 1000.000000000000000 ) ;
#239 = APPROVAL_STATUS ( 'not_yet_approved' ) ;
#240 = CIRCLE ( 'NONE', #300, 0.1999999999999996503 ) ;
#241 = CARTESIAN_POINT ( 'NONE',  ( 0.000000000000000000, 0.000000000000000000, 1206.999999999999773 ) ) ;
#242 = APPROVAL_ROLE ( '' ) ;
#243 = AXIS2_PLACEMENT_3D ( 'NONE', #22, #86, #152 ) ;
#244 = CIRCLE ( 'NONE', #269, 11.00000000000000000 ) ;
#245 = ORIENTED_EDGE ( 'NONE', *, *, #114, .F. ) ;
#246 = PERSON_AND_ORGANIZATION ( #261, #161 ) ;
#247 = APPROVAL_ROLE ( '' ) ;
#248 = CARTESIAN_POINT ( 'NONE',  ( 0.000000000000000000, 0.000000000000000000, 1206.999999999999773 ) ) ;
#249 = CARTESIAN_POINT ( 'NONE',  ( 0.000000000000000000, 0.000000000000000000, 7.000000000000000000 ) ) ;
#250 = DIRECTION ( 'NONE',  ( 1.000000000000000000, 0.000000000000000000, -0.000000000000000000 ) ) ;
#251 = ORIENTED_EDGE ( 'NONE', *, *, #291, .T. ) ;
#252 = CYLINDRICAL_SURFACE ( 'NONE', #24, 11.00000000000000000 ) ;
#253 = AXIS2_PLACEMENT_3D ( 'NONE', #3, #62, #166 ) ;
#254 = CYLINDRICAL_SURFACE ( 'NONE', #68, 7.000000000000000888 ) ;
#255 = LINE ( 'NONE', #213, #257 ) ;
#256 = AXIS2_PLACEMENT_3D ( 'NONE', #52, #305, #23 ) ;
#257 = VECTOR ( 'NONE', #1, 1000.000000000000000 ) ;
#258 = PRODUCT_RELATED_PRODUCT_CATEGORY ( 'detail', '', ( #139 ) ) ;
#259 = CC_DESIGN_APPROVAL ( #156, ( #214 ) ) ;
#260 = DIRECTION ( 'NONE',  ( 0.000000000000000000, 0.000000000000000000, 1.000000000000000000 ) ) ;
#261 = PERSON ( 'NEURÈENÝ', 'NEURÈENÝ', 'NEURÈENÝ', ('NEURÈENÝ'), ('NEURÈENÝ'), ('NEURÈENÝ') ) ;
#262 = AXIS2_PLACEMENT_3D ( 'NONE', #248, #130, #225 ) ;
#263 = CARTESIAN_POINT ( 'NONE',  ( -7.000000000000000888, 0.000000000000000000, 1206.999999999999773 ) ) ;
#264 = VERTEX_POINT ( 'NONE', #159 ) ;
#265 = COORDINATED_UNIVERSAL_TIME_OFFSET ( 1, 0, .AHEAD. ) ;
#266 = APPROVAL_DATE_TIME ( #290, #156 ) ;
#267 = CIRCLE ( 'NONE', #6, 0.1999999999999996503 ) ;
#268 = COORDINATED_UNIVERSAL_TIME_OFFSET ( 1, 0, .AHEAD. ) ;
#269 = AXIS2_PLACEMENT_3D ( 'NONE', #249, #41, #304 ) ;
#270 = CARTESIAN_POINT ( 'NONE',  ( 0.000000000000000000, 0.000000000000000000, 1206.999999999999773 ) ) ;
#271 = ADVANCED_FACE ( 'NONE', ( #204 ), #88, .F. ) ;
#272 = ORIENTED_EDGE ( 'NONE', *, *, #102, .T. ) ;
#273 = DIRECTION ( 'NONE',  ( 0.000000000000000000, 0.000000000000000000, 1.000000000000000000 ) ) ;
#274 = ORIENTED_EDGE ( 'NONE', *, *, #201, .F. ) ;
#275 = APPROVAL_ROLE ( '' ) ;
#276 = CARTESIAN_POINT ( 'NONE',  ( -7.000000000000000888, 0.000000000000000000, 1206.999999999999773 ) ) ;
#277 = CARTESIAN_POINT ( 'NONE',  ( 11.00000000000000000, 1.347111479062088405E-15, 0.000000000000000000 ) ) ;
#278 = CARTESIAN_POINT ( 'NONE',  ( 0.000000000000000000, 0.000000000000000000, 0.000000000000000000 ) ) ;
#279 = CARTESIAN_POINT ( 'NONE',  ( 0.000000000000000000, 0.000000000000000000, 0.000000000000000000 ) ) ;
#280 = PLANE ( 'NONE',  #217 ) ;
#281 = DIRECTION ( 'NONE',  ( -1.000000000000000000, 0.000000000000000000, 0.000000000000000000 ) ) ;
#282 = EDGE_LOOP ( 'NONE', ( #60, #205, #93, #301 ) ) ;
#283 = LOCAL_TIME ( 11, 25, 13.00000000000000000, #265 ) ;
#284 = ADVANCED_FACE ( 'NONE', ( #128 ), #111, .T. ) ;
#285 = CARTESIAN_POINT ( 'NONE',  ( 7.000000000000000888, 8.572527594031474176E-16, 1206.999999999999773 ) ) ;
#286 = ADVANCED_FACE ( 'NONE', ( #15 ), #254, .T. ) ;
#287 = CALENDAR_DATE ( 2022, 20, 6 ) ;
#288 = VECTOR ( 'NONE', #59, 1000.000000000000000 ) ;
#289 = ORIENTED_EDGE ( 'NONE', *, *, #82, .F. ) ;
#290 = DATE_AND_TIME ( #99, #228 ) ;
#291 = EDGE_CURVE ( 'NONE', #198, #107, #233, .T. ) ;
#292 = APPLICATION_CONTEXT ( 'configuration controlled 3d designs of mechanical parts and assemblies' ) ;
#293 = APPROVAL_STATUS ( 'not_yet_approved' ) ;
#294 = FACE_OUTER_BOUND ( 'NONE', #121, .T. ) ;
#295 = FACE_OUTER_BOUND ( 'NONE', #34, .T. ) ;
#296 = CALENDAR_DATE ( 2022, 20, 6 ) ;
#297 = DIRECTION ( 'NONE',  ( 1.000000000000000000, 0.000000000000000000, 0.000000000000000000 ) ) ;
#298 = VERTEX_POINT ( 'NONE', #149 ) ;
#299 = CC_DESIGN_SECURITY_CLASSIFICATION ( #214, ( #221 ) ) ;
#300 = AXIS2_PLACEMENT_3D ( 'NONE', #154, #151, #106 ) ;
#301 = ORIENTED_EDGE ( 'NONE', *, *, #138, .F. ) ;
#302 = APPROVAL ( #146, 'NEURÈENÝ' ) ;
#303 = CARTESIAN_POINT ( 'NONE',  ( 0.000000000000000000, 0.000000000000000000, 7.200000000000095213 ) ) ;
#304 = DIRECTION ( 'NONE',  ( 1.000000000000000000, 0.000000000000000000, 0.000000000000000000 ) ) ;
#305 = DIRECTION ( 'NONE',  ( 0.000000000000000000, 0.000000000000000000, 1.000000000000000000 ) ) ;
#306 = ORIENTED_EDGE ( 'NONE', *, *, #138, .T. ) ;
#307 = AXIS2_PLACEMENT_3D ( 'NONE', #30, #117, #119 ) ;
ENDSEC;
END-ISO-10303-21;
