ISO-10303-21;
HEADER;
FILE_DESCRIPTION (( 'STEP AP203' ),
    '1' );
FILE_NAME ('65c3.STEP',
    '2022-06-20T10:30:09',
    ( '' ),
    ( '' ),
    'SwSTEP 2.0',
    'SolidWorks 2019',
    '' );
FILE_SCHEMA (( 'CONFIG_CONTROL_DESIGN' ));
ENDSEC;

DATA;
#1 = DATE_TIME_ROLE ( 'creation_date' ) ;
#2 = ADVANCED_FACE ( 'NONE', ( #270, #274 ), #298, .T. ) ;
#3 = DIRECTION ( 'NONE',  ( 1.000000000000000000, 0.000000000000000000, 0.000000000000000000 ) ) ;
#4 = CARTESIAN_POINT ( 'NONE',  ( 0.000000000000000000, 0.000000000000000000, 1.199999999999999956 ) ) ;
#5 = ORIENTED_EDGE ( 'NONE', *, *, #201, .F. ) ;
#6 = APPROVAL_STATUS ( 'not_yet_approved' ) ;
#7 = ORIENTED_EDGE ( 'NONE', *, *, #102, .F. ) ;
#8 = AXIS2_PLACEMENT_3D ( 'NONE', #37, #39, #258 ) ;
#9 = EDGE_LOOP ( 'NONE', ( #80, #165, #144, #275 ) ) ;
#10 = CIRCLE ( 'NONE', #90, 1.250000000000000000 ) ;
#11 = ADVANCED_FACE ( 'NONE', ( #55 ), #251, .T. ) ;
#12 = DIRECTION ( 'NONE',  ( -0.000000000000000000, -0.000000000000000000, -1.000000000000000000 ) ) ;
#13 = EDGE_LOOP ( 'NONE', ( #71, #98 ) ) ;
#14 = ORIENTED_EDGE ( 'NONE', *, *, #286, .F. ) ;
#15 = CC_DESIGN_PERSON_AND_ORGANIZATION_ASSIGNMENT ( #22, #250, ( #120 ) ) ;
#16 = COORDINATED_UNIVERSAL_TIME_OFFSET ( 1, 0, .AHEAD. ) ;
#17 = DIRECTION ( 'NONE',  ( 0.000000000000000000, 0.000000000000000000, 1.000000000000000000 ) ) ;
#18 = CARTESIAN_POINT ( 'NONE',  ( -0.6999999999999999556, 8.572527594031471957E-17, 1.399999999999998579 ) ) ;
#19 = CARTESIAN_POINT ( 'NONE',  ( 0.000000000000000000, 0.000000000000000000, 1.399999999999998579 ) ) ;
#20 = CC_DESIGN_PERSON_AND_ORGANIZATION_ASSIGNMENT ( #166, #269, ( #218 ) ) ;
#21 = DIRECTION ( 'NONE',  ( 0.000000000000000000, -1.000000000000000000, 0.000000000000000000 ) ) ;
#22 = PERSON_AND_ORGANIZATION ( #242, #306 ) ;
#23 = DIRECTION ( 'NONE',  ( 0.000000000000000000, 0.000000000000000000, -1.000000000000000000 ) ) ;
#24 = PRODUCT ( '65c3', '65c3', '', ( #261 ) ) ;
#25 = COORDINATED_UNIVERSAL_TIME_OFFSET ( 1, 0, .AHEAD. ) ;
#26 = CC_DESIGN_PERSON_AND_ORGANIZATION_ASSIGNMENT ( #284, #213, ( #24 ) ) ;
#27 =( NAMED_UNIT ( * ) SI_UNIT ( $, .STERADIAN. ) SOLID_ANGLE_UNIT ( ) );
#28 = APPROVAL_PERSON_ORGANIZATION ( #93, #84, #181 ) ;
#29 = ORIENTED_EDGE ( 'NONE', *, *, #150, .T. ) ;
#30 = VERTEX_POINT ( 'NONE', #35 ) ;
#31 = DIRECTION ( 'NONE',  ( 0.000000000000000000, 0.000000000000000000, 1.000000000000000000 ) ) ;
#32 = PRODUCT_RELATED_PRODUCT_CATEGORY ( 'detail', '', ( #24 ) ) ;
#33 = CARTESIAN_POINT ( 'NONE',  ( 0.000000000000000000, 0.000000000000000000, 101.2000000000000171 ) ) ;
#34 = COORDINATED_UNIVERSAL_TIME_OFFSET ( 1, 0, .AHEAD. ) ;
#35 = CARTESIAN_POINT ( 'NONE',  ( -0.6999999999999999556, 8.572527594031473190E-17, 1.199999999999999289 ) ) ;
#36 = DIRECTION ( 'NONE',  ( 1.000000000000000000, 0.000000000000000000, 0.000000000000000000 ) ) ;
#37 = CARTESIAN_POINT ( 'NONE',  ( 0.000000000000000000, 0.000000000000000000, 101.2000000000000171 ) ) ;
#38 = AXIS2_PLACEMENT_3D ( 'NONE', #18, #303, #113 ) ;
#39 = DIRECTION ( 'NONE',  ( 0.000000000000000000, 0.000000000000000000, 1.000000000000000000 ) ) ;
#40 = AXIS2_PLACEMENT_3D ( 'NONE', #277, #57, #155 ) ;
#41 = CARTESIAN_POINT ( 'NONE',  ( 0.000000000000000000, 0.000000000000000000, 1.399999999999998579 ) ) ;
#42 = CARTESIAN_POINT ( 'NONE',  ( 0.000000000000000000, 0.000000000000000000, 0.000000000000000000 ) ) ;
#43 = SHAPE_DEFINITION_REPRESENTATION ( #283, #146 ) ;
#44 = CARTESIAN_POINT ( 'NONE',  ( 0.000000000000000000, 0.000000000000000000, 1.199999999999999956 ) ) ;
#45 = EDGE_CURVE ( 'NONE', #95, #173, #104, .T. ) ;
#46 = DIRECTION ( 'NONE',  ( 1.000000000000000000, 0.000000000000000000, 0.000000000000000000 ) ) ;
#47 = CARTESIAN_POINT ( 'NONE',  ( -0.5000000000000000000, 0.000000000000000000, 1.399999999999998579 ) ) ;
#48 = APPROVAL ( #141, 'NEURÈENÝ' ) ;
#49 = APPROVAL_DATE_TIME ( #237, #48 ) ;
#50 = PERSON_AND_ORGANIZATION ( #242, #306 ) ;
#51 = EDGE_LOOP ( 'NONE', ( #117, #249, #248, #153 ) ) ;
#52 = EDGE_CURVE ( 'NONE', #262, #95, #105, .T. ) ;
#53 = DIRECTION ( 'NONE',  ( -1.000000000000000000, 0.000000000000000000, 0.000000000000000000 ) ) ;
#54 = EDGE_LOOP ( 'NONE', ( #147, #149 ) ) ;
#55 = FACE_OUTER_BOUND ( 'NONE', #51, .T. ) ;
#56 = ADVANCED_FACE ( 'NONE', ( #194 ), #220, .F. ) ;
#57 = DIRECTION ( 'NONE',  ( 0.000000000000000000, 0.000000000000000000, 1.000000000000000000 ) ) ;
#58 = CLOSED_SHELL ( 'NONE', ( #118, #229, #268, #88, #2, #76, #11, #206, #56 ) ) ;
#59 = LINE ( 'NONE', #256, #228 ) ;
#60 = CARTESIAN_POINT ( 'NONE',  ( -0.5000000000000000000, 0.000000000000000000, 101.2000000000000171 ) ) ;
#61 = VECTOR ( 'NONE', #111, 1000.000000000000000 ) ;
#62 = SECURITY_CLASSIFICATION_LEVEL ( 'unclassified' ) ;
#63 = DIRECTION ( 'NONE',  ( -0.000000000000000000, -0.000000000000000000, -1.000000000000000000 ) ) ;
#64 = PERSON_AND_ORGANIZATION ( #242, #306 ) ;
#65 = APPROVAL_STATUS ( 'not_yet_approved' ) ;
#66 = ORIENTED_EDGE ( 'NONE', *, *, #45, .F. ) ;
#67 = APPROVAL_ROLE ( '' ) ;
#68 = EDGE_CURVE ( 'NONE', #262, #240, #10, .T. ) ;
#69 = DIRECTION ( 'NONE',  ( -0.000000000000000000, -0.000000000000000000, -1.000000000000000000 ) ) ;
#70 = DESIGN_CONTEXT ( 'detailed design', #221, 'design' ) ;
#71 = ORIENTED_EDGE ( 'NONE', *, *, #286, .T. ) ;
#72 = AXIS2_PLACEMENT_3D ( 'NONE', #42, #202, #282 ) ;
#73 = LOCAL_TIME ( 12, 30, 9.000000000000000000, #184 ) ;
#74 = DATE_AND_TIME ( #292, #73 ) ;
#75 = ORIENTED_EDGE ( 'NONE', *, *, #68, .F. ) ;
#76 = ADVANCED_FACE ( 'NONE', ( #188 ), #148, .F. ) ;
#77 = CARTESIAN_POINT ( 'NONE',  ( 0.000000000000000000, 0.000000000000000000, 1.199999999999999956 ) ) ;
#78 = AXIS2_PLACEMENT_3D ( 'NONE', #4, #69, #100 ) ;
#79 = LOCAL_TIME ( 12, 30, 9.000000000000000000, #34 ) ;
#80 = ORIENTED_EDGE ( 'NONE', *, *, #241, .F. ) ;
#81 = AXIS2_PLACEMENT_3D ( 'NONE', #33, #12, #223 ) ;
#82 = CARTESIAN_POINT ( 'NONE',  ( 0.000000000000000000, 0.000000000000000000, 0.000000000000000000 ) ) ;
#83 = APPROVAL_DATE_TIME ( #169, #84 ) ;
#84 = APPROVAL ( #65, 'NEURÈENÝ' ) ;
#85 = DIRECTION ( 'NONE',  ( 0.000000000000000000, 0.000000000000000000, 1.000000000000000000 ) ) ;
#86 = LOCAL_TIME ( 12, 30, 9.000000000000000000, #16 ) ;
#87 = DIRECTION ( 'NONE',  ( -1.000000000000000000, 0.000000000000000000, 0.000000000000000000 ) ) ;
#88 = ADVANCED_FACE ( 'NONE', ( #294 ), #219, .T. ) ;
#89 = DIRECTION ( 'NONE',  ( -0.000000000000000000, -0.000000000000000000, -1.000000000000000000 ) ) ;
#90 = AXIS2_PLACEMENT_3D ( 'NONE', #133, #17, #191 ) ;
#91 = DIRECTION ( 'NONE',  ( 1.000000000000000000, 0.000000000000000000, 0.000000000000000000 ) ) ;
#92 = DIRECTION ( 'NONE',  ( 1.000000000000000000, 0.000000000000000000, -0.000000000000000000 ) ) ;
#93 = PERSON_AND_ORGANIZATION ( #242, #306 ) ;
#94 = APPROVAL_ROLE ( '' ) ;
#95 = VERTEX_POINT ( 'NONE', #222 ) ;
#96 = CIRCLE ( 'NONE', #40, 0.5000000000000000000 ) ;
#97 = CARTESIAN_POINT ( 'NONE',  ( 0.000000000000000000, 0.000000000000000000, 101.2000000000000171 ) ) ;
#98 = ORIENTED_EDGE ( 'NONE', *, *, #177, .T. ) ;
#99 = CIRCLE ( 'NONE', #38, 0.1999999999999999833 ) ;
#100 = DIRECTION ( 'NONE',  ( 1.000000000000000000, 0.000000000000000000, 0.000000000000000000 ) ) ;
#101 = APPLICATION_PROTOCOL_DEFINITION ( 'international standard', 'config_control_design', 1994, #200 ) ;
#102 = EDGE_CURVE ( 'NONE', #164, #142, #128, .T. ) ;
#103 = ORIENTED_EDGE ( 'NONE', *, *, #123, .T. ) ;
#104 = CIRCLE ( 'NONE', #183, 1.250000000000000000 ) ;
#105 = LINE ( 'NONE', #193, #278 ) ;
#106 =( GEOMETRIC_REPRESENTATION_CONTEXT ( 3 ) GLOBAL_UNCERTAINTY_ASSIGNED_CONTEXT ( ( #204 ) ) GLOBAL_UNIT_ASSIGNED_CONTEXT ( ( #243, #263, #27 ) ) REPRESENTATION_CONTEXT ( 'NONE', 'WORKASPACE' ) );
#107 = DIRECTION ( 'NONE',  ( 0.000000000000000000, 0.000000000000000000, 1.000000000000000000 ) ) ;
#108 = EDGE_LOOP ( 'NONE', ( #267, #245, #29, #225 ) ) ;
#109 = CYLINDRICAL_SURFACE ( 'NONE', #215, 1.250000000000000000 ) ;
#110 = CC_DESIGN_PERSON_AND_ORGANIZATION_ASSIGNMENT ( #127, #130, ( #255 ) ) ;
#111 = DIRECTION ( 'NONE',  ( -0.000000000000000000, -0.000000000000000000, -1.000000000000000000 ) ) ;
#112 = DIRECTION ( 'NONE',  ( 0.000000000000000000, 0.000000000000000000, 1.000000000000000000 ) ) ;
#113 = DIRECTION ( 'NONE',  ( -1.000000000000000000, 1.224646799147352714E-16, 0.000000000000000000 ) ) ;
#114 = CARTESIAN_POINT ( 'NONE',  ( 0.000000000000000000, 0.000000000000000000, 101.2000000000000171 ) ) ;
#115 = APPROVAL_PERSON_ORGANIZATION ( #239, #265, #94 ) ;
#116 = CALENDAR_DATE ( 2022, 20, 6 ) ;
#117 = ORIENTED_EDGE ( 'NONE', *, *, #212, .F. ) ;
#118 = ADVANCED_FACE ( 'NONE', ( #304 ), #199, .F. ) ;
#119 = ORIENTED_EDGE ( 'NONE', *, *, #150, .F. ) ;
#120 = SECURITY_CLASSIFICATION ( '', '', #62 ) ;
#121 = COORDINATED_UNIVERSAL_TIME_OFFSET ( 1, 0, .AHEAD. ) ;
#122 = EDGE_LOOP ( 'NONE', ( #214, #103, #14, #7 ) ) ;
#123 = EDGE_CURVE ( 'NONE', #296, #30, #99, .T. ) ;
#124 = EDGE_LOOP ( 'NONE', ( #209, #287 ) ) ;
#125 = CC_DESIGN_APPROVAL ( #48, ( #120 ) ) ;
#126 = DIRECTION ( 'NONE',  ( 1.000000000000000000, 0.000000000000000000, -0.000000000000000000 ) ) ;
#127 = PERSON_AND_ORGANIZATION ( #242, #306 ) ;
#128 = CIRCLE ( 'NONE', #163, 0.2000000000000000944 ) ;
#129 = DIRECTION ( 'NONE',  ( 1.000000000000000000, 0.000000000000000000, 0.000000000000000000 ) ) ;
#130 = PERSON_AND_ORGANIZATION_ROLE ( 'creator' ) ;
#131 = CARTESIAN_POINT ( 'NONE',  ( 0.000000000000000000, 0.000000000000000000, 1.199999999999999956 ) ) ;
#132 = AXIS2_PLACEMENT_3D ( 'NONE', #44, #134, #280 ) ;
#133 = CARTESIAN_POINT ( 'NONE',  ( 0.000000000000000000, 0.000000000000000000, 1.199999999999999956 ) ) ;
#134 = DIRECTION ( 'NONE',  ( 0.000000000000000000, 0.000000000000000000, 1.000000000000000000 ) ) ;
#135 = CARTESIAN_POINT ( 'NONE',  ( -0.5000000000000000000, 0.000000000000000000, 101.2000000000000171 ) ) ;
#136 = EDGE_CURVE ( 'NONE', #264, #296, #203, .T. ) ;
#137 = DIRECTION ( 'NONE',  ( 1.000000000000000000, 0.000000000000000000, 0.000000000000000000 ) ) ;
#138 = AXIS2_PLACEMENT_3D ( 'NONE', #114, #159, #257 ) ;
#139 = CARTESIAN_POINT ( 'NONE',  ( -1.250000000000000000, 0.000000000000000000, 1.199999999999999956 ) ) ;
#140 = AXIS2_PLACEMENT_3D ( 'NONE', #247, #85, #36 ) ;
#141 = APPROVAL_STATUS ( 'not_yet_approved' ) ;
#142 = VERTEX_POINT ( 'NONE', #156 ) ;
#143 = CARTESIAN_POINT ( 'NONE',  ( 0.000000000000000000, 0.000000000000000000, 0.000000000000000000 ) ) ;
#144 = ORIENTED_EDGE ( 'NONE', *, *, #201, .T. ) ;
#145 = APPROVAL_DATE_TIME ( #74, #265 ) ;
#146 = ADVANCED_BREP_SHAPE_REPRESENTATION ( '65c3', ( #205, #217 ), #106 ) ;
#147 = ORIENTED_EDGE ( 'NONE', *, *, #297, .T. ) ;
#148 = PLANE ( 'NONE',  #231 ) ;
#149 = ORIENTED_EDGE ( 'NONE', *, *, #241, .T. ) ;
#150 = EDGE_CURVE ( 'NONE', #173, #95, #185, .T. ) ;
#151 = DIRECTION ( 'NONE',  ( -0.000000000000000000, -0.000000000000000000, -1.000000000000000000 ) ) ;
#152 = LOCAL_TIME ( 12, 30, 9.000000000000000000, #121 ) ;
#153 = ORIENTED_EDGE ( 'NONE', *, *, #276, .T. ) ;
#154 = DATE_AND_TIME ( #195, #86 ) ;
#155 = DIRECTION ( 'NONE',  ( 1.000000000000000000, 0.000000000000000000, 0.000000000000000000 ) ) ;
#156 = CARTESIAN_POINT ( 'NONE',  ( 0.6999999999999999556, 0.000000000000000000, 1.199999999999999289 ) ) ;
#157 = CIRCLE ( 'NONE', #132, 1.250000000000000000 ) ;
#158 = CARTESIAN_POINT ( 'NONE',  ( 0.000000000000000000, 0.000000000000000000, 1.199999999999999956 ) ) ;
#159 = DIRECTION ( 'NONE',  ( -0.000000000000000000, -0.000000000000000000, -1.000000000000000000 ) ) ;
#160 = CARTESIAN_POINT ( 'NONE',  ( 1.250000000000000000, 1.530808498934191571E-16, 1.199999999999999956 ) ) ;
#161 = AXIS2_PLACEMENT_3D ( 'NONE', #97, #211, #46 ) ;
#162 = ORIENTED_EDGE ( 'NONE', *, *, #102, .T. ) ;
#163 = AXIS2_PLACEMENT_3D ( 'NONE', #307, #21, #23 ) ;
#164 = VERTEX_POINT ( 'NONE', #178 ) ;
#165 = ORIENTED_EDGE ( 'NONE', *, *, #212, .T. ) ;
#166 = PERSON_AND_ORGANIZATION ( #242, #306 ) ;
#167 = EDGE_LOOP ( 'NONE', ( #66, #119 ) ) ;
#168 = CARTESIAN_POINT ( 'NONE',  ( 0.000000000000000000, 0.000000000000000000, 0.000000000000000000 ) ) ;
#169 = DATE_AND_TIME ( #189, #79 ) ;
#170 = DIRECTION ( 'NONE',  ( -0.000000000000000000, -0.000000000000000000, -1.000000000000000000 ) ) ;
#171 = CC_DESIGN_PERSON_AND_ORGANIZATION_ASSIGNMENT ( #50, #227, ( #255 ) ) ;
#172 = AXIS2_PLACEMENT_3D ( 'NONE', #158, #230, #137 ) ;
#173 = VERTEX_POINT ( 'NONE', #174 ) ;
#174 = CARTESIAN_POINT ( 'NONE',  ( 1.250000000000000000, 1.530808498934191571E-16, 0.000000000000000000 ) ) ;
#175 = DIRECTION ( 'NONE',  ( 0.000000000000000000, 0.000000000000000000, 1.000000000000000000 ) ) ;
#176 = DIRECTION ( 'NONE',  ( 0.000000000000000000, 0.000000000000000000, 1.000000000000000000 ) ) ;
#177 = EDGE_CURVE ( 'NONE', #30, #142, #291, .T. ) ;
#178 = CARTESIAN_POINT ( 'NONE',  ( 0.5000000000000000000, 6.123233995736766036E-17, 1.399999999999998579 ) ) ;
#179 = CYLINDRICAL_SURFACE ( 'NONE', #138, 0.5000000000000000000 ) ;
#180 = EDGE_CURVE ( 'NONE', #240, #173, #59, .T. ) ;
#181 = APPROVAL_ROLE ( '' ) ;
#182 = ORIENTED_EDGE ( 'NONE', *, *, #52, .T. ) ;
#183 = AXIS2_PLACEMENT_3D ( 'NONE', #82, #107, #129 ) ;
#184 = COORDINATED_UNIVERSAL_TIME_OFFSET ( 1, 0, .AHEAD. ) ;
#185 = CIRCLE ( 'NONE', #72, 1.250000000000000000 ) ;
#186 = ORIENTED_EDGE ( 'NONE', *, *, #45, .T. ) ;
#187 = LOCAL_TIME ( 12, 30, 9.000000000000000000, #25 ) ;
#188 = FACE_OUTER_BOUND ( 'NONE', #167, .T. ) ;
#189 = CALENDAR_DATE ( 2022, 20, 6 ) ;
#190 = CC_DESIGN_DATE_AND_TIME_ASSIGNMENT ( #207, #1, ( #218 ) ) ;
#191 = DIRECTION ( 'NONE',  ( 1.000000000000000000, 0.000000000000000000, 0.000000000000000000 ) ) ;
#192 = AXIS2_PLACEMENT_3D ( 'NONE', #233, #176, #92 ) ;
#193 = CARTESIAN_POINT ( 'NONE',  ( -1.250000000000000000, 0.000000000000000000, 1.199999999999999956 ) ) ;
#194 = FACE_OUTER_BOUND ( 'NONE', #290, .T. ) ;
#195 = CALENDAR_DATE ( 2022, 20, 6 ) ;
#196 = CARTESIAN_POINT ( 'NONE',  ( 0.000000000000000000, 0.000000000000000000, 1.199999999999999956 ) ) ;
#197 = DATE_TIME_ROLE ( 'classification_date' ) ;
#198 = FACE_OUTER_BOUND ( 'NONE', #9, .T. ) ;
#199 = TOROIDAL_SURFACE ( 'NONE', #288, 0.6999999999999999556, 0.2000000000000000111 ) ;
#200 = APPLICATION_CONTEXT ( 'configuration controlled 3d designs of mechanical parts and assemblies' ) ;
#201 = EDGE_CURVE ( 'NONE', #164, #296, #295, .T. ) ;
#202 = DIRECTION ( 'NONE',  ( 0.000000000000000000, 0.000000000000000000, 1.000000000000000000 ) ) ;
#203 = LINE ( 'NONE', #135, #254 ) ;
#204 = UNCERTAINTY_MEASURE_WITH_UNIT (LENGTH_MEASURE( 1.000000000000000082E-05 ), #243, 'distance_accuracy_value', 'NONE');
#205 = MANIFOLD_SOLID_BREP ( 'Zaoblit1', #58 ) ;
#206 = ADVANCED_FACE ( 'NONE', ( #253 ), #279, .T. ) ;
#207 = DATE_AND_TIME ( #116, #187 ) ;
#208 = DIRECTION ( 'NONE',  ( 0.000000000000000000, 0.000000000000000000, 1.000000000000000000 ) ) ;
#209 = ORIENTED_EDGE ( 'NONE', *, *, #68, .T. ) ;
#210 = CIRCLE ( 'NONE', #78, 0.6999999999999999556 ) ;
#211 = DIRECTION ( 'NONE',  ( 0.000000000000000000, 0.000000000000000000, 1.000000000000000000 ) ) ;
#212 = EDGE_CURVE ( 'NONE', #244, #164, #232, .T. ) ;
#213 = PERSON_AND_ORGANIZATION_ROLE ( 'design_owner' ) ;
#214 = ORIENTED_EDGE ( 'NONE', *, *, #276, .F. ) ;
#215 = AXIS2_PLACEMENT_3D ( 'NONE', #196, #300, #87 ) ;
#216 = ORIENTED_EDGE ( 'NONE', *, *, #123, .F. ) ;
#217 = AXIS2_PLACEMENT_3D ( 'NONE', #143, #208, #3 ) ;
#218 = PRODUCT_DEFINITION ( 'NEZNÁMÝ', '', #255, #70 ) ;
#219 = CYLINDRICAL_SURFACE ( 'NONE', #302, 1.250000000000000000 ) ;
#220 = TOROIDAL_SURFACE ( 'NONE', #140, 0.6999999999999999556, 0.2000000000000000111 ) ;
#221 = APPLICATION_CONTEXT ( 'configuration controlled 3d designs of mechanical parts and assemblies' ) ;
#222 = CARTESIAN_POINT ( 'NONE',  ( -1.250000000000000000, 0.000000000000000000, 0.000000000000000000 ) ) ;
#223 = DIRECTION ( 'NONE',  ( -1.000000000000000000, 0.000000000000000000, 0.000000000000000000 ) ) ;
#224 = CC_DESIGN_DATE_AND_TIME_ASSIGNMENT ( #154, #197, ( #120 ) ) ;
#225 = ORIENTED_EDGE ( 'NONE', *, *, #52, .F. ) ;
#226 = DIRECTION ( 'NONE',  ( 1.000000000000000000, 0.000000000000000000, 0.000000000000000000 ) ) ;
#227 = PERSON_AND_ORGANIZATION_ROLE ( 'design_supplier' ) ;
#228 = VECTOR ( 'NONE', #63, 1000.000000000000000 ) ;
#229 = ADVANCED_FACE ( 'NONE', ( #198 ), #179, .T. ) ;
#230 = DIRECTION ( 'NONE',  ( -0.000000000000000000, -0.000000000000000000, -1.000000000000000000 ) ) ;
#231 = AXIS2_PLACEMENT_3D ( 'NONE', #168, #31, #126 ) ;
#232 = LINE ( 'NONE', #281, #61 ) ;
#233 = CARTESIAN_POINT ( 'NONE',  ( 0.000000000000000000, 0.000000000000000000, 101.2000000000000171 ) ) ;
#234 = CALENDAR_DATE ( 2022, 20, 6 ) ;
#235 = CC_DESIGN_SECURITY_CLASSIFICATION ( #120, ( #255 ) ) ;
#236 = FACE_OUTER_BOUND ( 'NONE', #108, .T. ) ;
#237 = DATE_AND_TIME ( #234, #152 ) ;
#238 = AXIS2_PLACEMENT_3D ( 'NONE', #131, #271, #273 ) ;
#239 = PERSON_AND_ORGANIZATION ( #242, #306 ) ;
#240 = VERTEX_POINT ( 'NONE', #160 ) ;
#241 = EDGE_CURVE ( 'NONE', #244, #264, #305, .T. ) ;
#242 = PERSON ( 'NEURÈENÝ', 'NEURÈENÝ', 'NEURÈENÝ', ('NEURÈENÝ'), ('NEURÈENÝ'), ('NEURÈENÝ') ) ;
#243 =( LENGTH_UNIT ( ) NAMED_UNIT ( * ) SI_UNIT ( .MILLI., .METRE. ) );
#244 = VERTEX_POINT ( 'NONE', #301 ) ;
#245 = ORIENTED_EDGE ( 'NONE', *, *, #180, .T. ) ;
#246 = CC_DESIGN_APPROVAL ( #265, ( #218 ) ) ;
#247 = CARTESIAN_POINT ( 'NONE',  ( 0.000000000000000000, 0.000000000000000000, 1.399999999999998579 ) ) ;
#248 = ORIENTED_EDGE ( 'NONE', *, *, #136, .T. ) ;
#249 = ORIENTED_EDGE ( 'NONE', *, *, #297, .F. ) ;
#250 = PERSON_AND_ORGANIZATION_ROLE ( 'classification_officer' ) ;
#251 = CYLINDRICAL_SURFACE ( 'NONE', #81, 0.5000000000000000000 ) ;
#252 = EDGE_CURVE ( 'NONE', #240, #262, #157, .T. ) ;
#253 = FACE_OUTER_BOUND ( 'NONE', #54, .T. ) ;
#254 = VECTOR ( 'NONE', #89, 1000.000000000000000 ) ;
#255 = PRODUCT_DEFINITION_FORMATION_WITH_SPECIFIED_SOURCE ( 'LIBOVOLNÝ', '', #24, .NOT_KNOWN. ) ;
#256 = CARTESIAN_POINT ( 'NONE',  ( 1.250000000000000000, 1.530808498934191571E-16, 1.199999999999999956 ) ) ;
#257 = DIRECTION ( 'NONE',  ( -1.000000000000000000, 0.000000000000000000, 0.000000000000000000 ) ) ;
#258 = DIRECTION ( 'NONE',  ( 1.000000000000000000, 0.000000000000000000, 0.000000000000000000 ) ) ;
#259 = CIRCLE ( 'NONE', #161, 0.5000000000000000000 ) ;
#260 = APPROVAL_PERSON_ORGANIZATION ( #64, #48, #67 ) ;
#261 = MECHANICAL_CONTEXT ( 'NONE', #200, 'mechanical' ) ;
#262 = VERTEX_POINT ( 'NONE', #139 ) ;
#263 =( NAMED_UNIT ( * ) PLANE_ANGLE_UNIT ( ) SI_UNIT ( $, .RADIAN. ) );
#264 = VERTEX_POINT ( 'NONE', #60 ) ;
#265 = APPROVAL ( #6, 'NEURÈENÝ' ) ;
#266 = AXIS2_PLACEMENT_3D ( 'NONE', #41, #175, #91 ) ;
#267 = ORIENTED_EDGE ( 'NONE', *, *, #252, .F. ) ;
#268 = ADVANCED_FACE ( 'NONE', ( #236 ), #109, .T. ) ;
#269 = PERSON_AND_ORGANIZATION_ROLE ( 'creator' ) ;
#270 = FACE_BOUND ( 'NONE', #13, .T. ) ;
#271 = DIRECTION ( 'NONE',  ( 0.000000000000000000, 0.000000000000000000, 1.000000000000000000 ) ) ;
#272 = CC_DESIGN_APPROVAL ( #84, ( #255 ) ) ;
#273 = DIRECTION ( 'NONE',  ( 1.000000000000000000, 0.000000000000000000, -0.000000000000000000 ) ) ;
#274 = FACE_OUTER_BOUND ( 'NONE', #124, .T. ) ;
#275 = ORIENTED_EDGE ( 'NONE', *, *, #136, .F. ) ;
#276 = EDGE_CURVE ( 'NONE', #296, #164, #96, .T. ) ;
#277 = CARTESIAN_POINT ( 'NONE',  ( 0.000000000000000000, 0.000000000000000000, 1.399999999999998579 ) ) ;
#278 = VECTOR ( 'NONE', #151, 1000.000000000000000 ) ;
#279 = PLANE ( 'NONE',  #192 ) ;
#280 = DIRECTION ( 'NONE',  ( 1.000000000000000000, 0.000000000000000000, 0.000000000000000000 ) ) ;
#281 = CARTESIAN_POINT ( 'NONE',  ( 0.5000000000000000000, 6.123233995736766036E-17, 101.2000000000000171 ) ) ;
#282 = DIRECTION ( 'NONE',  ( 1.000000000000000000, 0.000000000000000000, 0.000000000000000000 ) ) ;
#283 = PRODUCT_DEFINITION_SHAPE ( 'NONE', 'NONE',  #218 ) ;
#284 = PERSON_AND_ORGANIZATION ( #242, #306 ) ;
#285 = APPLICATION_PROTOCOL_DEFINITION ( 'international standard', 'config_control_design', 1994, #221 ) ;
#286 = EDGE_CURVE ( 'NONE', #142, #30, #210, .T. ) ;
#287 = ORIENTED_EDGE ( 'NONE', *, *, #252, .T. ) ;
#288 = AXIS2_PLACEMENT_3D ( 'NONE', #19, #112, #226 ) ;
#289 = EDGE_LOOP ( 'NONE', ( #299, #75, #182, #186 ) ) ;
#290 = EDGE_LOOP ( 'NONE', ( #216, #5, #162, #293 ) ) ;
#291 = CIRCLE ( 'NONE', #172, 0.6999999999999999556 ) ;
#292 = CALENDAR_DATE ( 2022, 20, 6 ) ;
#293 = ORIENTED_EDGE ( 'NONE', *, *, #177, .F. ) ;
#294 = FACE_OUTER_BOUND ( 'NONE', #289, .T. ) ;
#295 = CIRCLE ( 'NONE', #266, 0.5000000000000000000 ) ;
#296 = VERTEX_POINT ( 'NONE', #47 ) ;
#297 = EDGE_CURVE ( 'NONE', #264, #244, #259, .T. ) ;
#298 = PLANE ( 'NONE',  #238 ) ;
#299 = ORIENTED_EDGE ( 'NONE', *, *, #180, .F. ) ;
#300 = DIRECTION ( 'NONE',  ( -0.000000000000000000, -0.000000000000000000, -1.000000000000000000 ) ) ;
#301 = CARTESIAN_POINT ( 'NONE',  ( 0.5000000000000000000, 6.123233995736766036E-17, 101.2000000000000171 ) ) ;
#302 = AXIS2_PLACEMENT_3D ( 'NONE', #77, #170, #53 ) ;
#303 = DIRECTION ( 'NONE',  ( 1.224646799147353207E-16, 1.000000000000000000, -0.000000000000000000 ) ) ;
#304 = FACE_OUTER_BOUND ( 'NONE', #122, .T. ) ;
#305 = CIRCLE ( 'NONE', #8, 0.5000000000000000000 ) ;
#306 = ORGANIZATION ( 'NEURÈENÝ', 'NEURÈENÝ', '' ) ;
#307 = CARTESIAN_POINT ( 'NONE',  ( 0.6999999999999999556, 0.000000000000000000, 1.399999999999998579 ) ) ;
ENDSEC;
END-ISO-10303-21;
