ISO-10303-21;
HEADER;
FILE_DESCRIPTION (( 'STEP AP203' ),
    '1' );
FILE_NAME ('fe6e.STEP',
    '2022-06-20T10:16:40',
    ( '' ),
    ( '' ),
    'SwSTEP 2.0',
    'SolidWorks 2019',
    '' );
FILE_SCHEMA (( 'CONFIG_CONTROL_DESIGN' ));
ENDSEC;

DATA;
#1 = DIRECTION ( 'NONE',  ( 1.000000000000000000, 0.000000000000000000, 0.000000000000000000 ) ) ;
#2 = ORIENTED_EDGE ( 'NONE', *, *, #94, .T. ) ;
#3 = ORIENTED_EDGE ( 'NONE', *, *, #192, .F. ) ;
#4 = SECURITY_CLASSIFICATION_LEVEL ( 'unclassified' ) ;
#5 = ORIENTED_EDGE ( 'NONE', *, *, #275, .T. ) ;
#6 = EDGE_LOOP ( 'NONE', ( #123, #172 ) ) ;
#7 = LINE ( 'NONE', #299, #51 ) ;
#8 = EDGE_CURVE ( 'NONE', #242, #27, #295, .T. ) ;
#9 = DIRECTION ( 'NONE',  ( 1.000000000000000000, 0.000000000000000000, 0.000000000000000000 ) ) ;
#10 = CIRCLE ( 'NONE', #143, 1.500000000000000222 ) ;
#11 = FACE_BOUND ( 'NONE', #234, .T. ) ;
#12 = CARTESIAN_POINT ( 'NONE',  ( 0.000000000000000000, 0.000000000000000000, 3.000000000000000000 ) ) ;
#13 = CC_DESIGN_PERSON_AND_ORGANIZATION_ASSIGNMENT ( #97, #166, ( #114 ) ) ;
#14 = FACE_OUTER_BOUND ( 'NONE', #6, .T. ) ;
#15 = MANIFOLD_SOLID_BREP ( 'Zaoblit1', #164 ) ;
#16 = DIRECTION ( 'NONE',  ( 1.000000000000000000, 0.000000000000000000, 0.000000000000000000 ) ) ;
#17 = APPROVAL_STATUS ( 'not_yet_approved' ) ;
#18 = PERSON_AND_ORGANIZATION ( #165, #83 ) ;
#19 = ADVANCED_FACE ( 'NONE', ( #120 ), #185, .F. ) ;
#20 = EDGE_LOOP ( 'NONE', ( #243, #173, #271, #239 ) ) ;
#21 = AXIS2_PLACEMENT_3D ( 'NONE', #131, #276, #109 ) ;
#22 = DIRECTION ( 'NONE',  ( 0.000000000000000000, 0.000000000000000000, 1.000000000000000000 ) ) ;
#23 = CALENDAR_DATE ( 2022, 20, 6 ) ;
#24 = EDGE_LOOP ( 'NONE', ( #73, #80 ) ) ;
#25 = EDGE_LOOP ( 'NONE', ( #216, #55, #162, #142 ) ) ;
#26 = ORIENTED_EDGE ( 'NONE', *, *, #66, .F. ) ;
#27 = VERTEX_POINT ( 'NONE', #105 ) ;
#28 = COORDINATED_UNIVERSAL_TIME_OFFSET ( 1, 0, .AHEAD. ) ;
#29 = DIRECTION ( 'NONE',  ( -0.000000000000000000, -0.000000000000000000, -1.000000000000000000 ) ) ;
#30 = DIRECTION ( 'NONE',  ( 0.000000000000000000, -1.000000000000000000, 0.000000000000000000 ) ) ;
#31 = CARTESIAN_POINT ( 'NONE',  ( 0.000000000000000000, 0.000000000000000000, 3.000000000000000000 ) ) ;
#32 = DIRECTION ( 'NONE',  ( 1.000000000000000000, 0.000000000000000000, 0.000000000000000000 ) ) ;
#33 = AXIS2_PLACEMENT_3D ( 'NONE', #209, #156, #207 ) ;
#34 = DIRECTION ( 'NONE',  ( 1.000000000000000000, 0.000000000000000000, -0.000000000000000000 ) ) ;
#35 = ADVANCED_FACE ( 'NONE', ( #193 ), #268, .T. ) ;
#36 = LINE ( 'NONE', #179, #303 ) ;
#37 =( NAMED_UNIT ( * ) PLANE_ANGLE_UNIT ( ) SI_UNIT ( $, .RADIAN. ) );
#38 = AXIS2_PLACEMENT_3D ( 'NONE', #247, #200, #32 ) ;
#39 = CARTESIAN_POINT ( 'NONE',  ( 0.000000000000000000, 0.000000000000000000, 128.0000000000000000 ) ) ;
#40 = CIRCLE ( 'NONE', #99, 1.500000000000000222 ) ;
#41 = CC_DESIGN_DATE_AND_TIME_ASSIGNMENT ( #217, #49, ( #273 ) ) ;
#42 = DIRECTION ( 'NONE',  ( 0.000000000000000000, 0.000000000000000000, 1.000000000000000000 ) ) ;
#43 = DESIGN_CONTEXT ( 'detailed design', #289, 'design' ) ;
#44 = PERSON_AND_ORGANIZATION_ROLE ( 'design_owner' ) ;
#45 = CARTESIAN_POINT ( 'NONE',  ( 0.000000000000000000, 0.000000000000000000, 0.000000000000000000 ) ) ;
#46 = EDGE_CURVE ( 'NONE', #287, #191, #206, .T. ) ;
#47 = APPROVAL_ROLE ( '' ) ;
#48 = VERTEX_POINT ( 'NONE', #98 ) ;
#49 = DATE_TIME_ROLE ( 'classification_date' ) ;
#50 = DIRECTION ( 'NONE',  ( 0.000000000000000000, 0.000000000000000000, 1.000000000000000000 ) ) ;
#51 = VECTOR ( 'NONE', #174, 1000.000000000000000 ) ;
#52 = ORIENTED_EDGE ( 'NONE', *, *, #92, .T. ) ;
#53 = PERSON_AND_ORGANIZATION ( #165, #83 ) ;
#54 = DIRECTION ( 'NONE',  ( -1.000000000000000000, 0.000000000000000000, 0.000000000000000000 ) ) ;
#55 = ORIENTED_EDGE ( 'NONE', *, *, #46, .F. ) ;
#56 = PRODUCT_DEFINITION_SHAPE ( 'NONE', 'NONE',  #241 ) ;
#57 = EDGE_CURVE ( 'NONE', #169, #293, #70, .T. ) ;
#58 = AXIS2_PLACEMENT_3D ( 'NONE', #12, #282, #281 ) ;
#59 = DIRECTION ( 'NONE',  ( -0.000000000000000000, -0.000000000000000000, -1.000000000000000000 ) ) ;
#60 = DIRECTION ( 'NONE',  ( 1.000000000000000000, 0.000000000000000000, -0.000000000000000000 ) ) ;
#61 = DIRECTION ( 'NONE',  ( -0.000000000000000000, -0.000000000000000000, -1.000000000000000000 ) ) ;
#62 = CIRCLE ( 'NONE', #306, 3.000000000000000444 ) ;
#63 = CARTESIAN_POINT ( 'NONE',  ( 1.500000000000000222, 1.836970198721030181E-16, 3.199999999999994404 ) ) ;
#64 = FACE_OUTER_BOUND ( 'NONE', #25, .T. ) ;
#65 = VECTOR ( 'NONE', #300, 1000.000000000000000 ) ;
#66 = EDGE_CURVE ( 'NONE', #293, #169, #229, .T. ) ;
#67 = MECHANICAL_CONTEXT ( 'NONE', #253, 'mechanical' ) ;
#68 = ORIENTED_EDGE ( 'NONE', *, *, #8, .F. ) ;
#69 = CARTESIAN_POINT ( 'NONE',  ( 3.000000000000000444, 3.673940397442060361E-16, 0.000000000000000000 ) ) ;
#70 = CIRCLE ( 'NONE', #284, 3.000000000000000444 ) ;
#71 = CC_DESIGN_APPROVAL ( #222, ( #114 ) ) ;
#72 = CALENDAR_DATE ( 2022, 20, 6 ) ;
#73 = ORIENTED_EDGE ( 'NONE', *, *, #46, .T. ) ;
#74 = COORDINATED_UNIVERSAL_TIME_OFFSET ( 1, 0, .AHEAD. ) ;
#75 = CARTESIAN_POINT ( 'NONE',  ( 0.000000000000000000, 0.000000000000000000, 3.000000000000000000 ) ) ;
#76 = AXIS2_PLACEMENT_3D ( 'NONE', #146, #50, #1 ) ;
#77 = AXIS2_PLACEMENT_3D ( 'NONE', #194, #163, #214 ) ;
#78 = DIRECTION ( 'NONE',  ( -0.000000000000000000, -0.000000000000000000, -1.000000000000000000 ) ) ;
#79 = SHAPE_DEFINITION_REPRESENTATION ( #56, #167 ) ;
#80 = ORIENTED_EDGE ( 'NONE', *, *, #205, .T. ) ;
#81 = ORIENTED_EDGE ( 'NONE', *, *, #8, .T. ) ;
#82 = DIRECTION ( 'NONE',  ( 0.000000000000000000, 0.000000000000000000, 1.000000000000000000 ) ) ;
#83 = ORGANIZATION ( 'NEURÈENÝ', 'NEURÈENÝ', '' ) ;
#84 = CARTESIAN_POINT ( 'NONE',  ( 1.500000000000000222, 1.836970198721030181E-16, 128.0000000000000000 ) ) ;
#85 = DIRECTION ( 'NONE',  ( 1.000000000000000000, 0.000000000000000000, 0.000000000000000000 ) ) ;
#86 = EDGE_CURVE ( 'NONE', #212, #242, #255, .T. ) ;
#87 = AXIS2_PLACEMENT_3D ( 'NONE', #291, #29, #54 ) ;
#88 = DIRECTION ( 'NONE',  ( -1.000000000000000000, 0.000000000000000000, 0.000000000000000000 ) ) ;
#89 = LOCAL_TIME ( 12, 16, 40.00000000000000000, #158 ) ;
#90 = CARTESIAN_POINT ( 'NONE',  ( 0.000000000000000000, 0.000000000000000000, 3.000000000000000000 ) ) ;
#91 = COORDINATED_UNIVERSAL_TIME_OFFSET ( 1, 0, .AHEAD. ) ;
#92 = EDGE_CURVE ( 'NONE', #145, #27, #157, .T. ) ;
#93 = PERSON_AND_ORGANIZATION ( #165, #83 ) ;
#94 = EDGE_CURVE ( 'NONE', #48, #293, #152, .T. ) ;
#95 = LINE ( 'NONE', #184, #237 ) ;
#96 = CARTESIAN_POINT ( 'NONE',  ( -3.000000000000000444, 0.000000000000000000, 3.000000000000000000 ) ) ;
#97 = PERSON_AND_ORGANIZATION ( #165, #83 ) ;
#98 = CARTESIAN_POINT ( 'NONE',  ( 3.000000000000000444, 3.673940397442060361E-16, 3.000000000000000000 ) ) ;
#99 = AXIS2_PLACEMENT_3D ( 'NONE', #198, #134, #297 ) ;
#100 = CC_DESIGN_SECURITY_CLASSIFICATION ( #273, ( #114 ) ) ;
#101 = EDGE_LOOP ( 'NONE', ( #265, #2, #189, #218 ) ) ;
#102 = ADVANCED_FACE ( 'NONE', ( #113 ), #279, .T. ) ;
#103 = ORIENTED_EDGE ( 'NONE', *, *, #205, .F. ) ;
#104 = APPROVAL_DATE_TIME ( #240, #138 ) ;
#105 = CARTESIAN_POINT ( 'NONE',  ( 1.700000000000000400, 0.000000000000000000, 2.999999999999997335 ) ) ;
#106 = ADVANCED_FACE ( 'NONE', ( #11, #14 ), #110, .T. ) ;
#107 = ORIENTED_EDGE ( 'NONE', *, *, #283, .T. ) ;
#108 = CARTESIAN_POINT ( 'NONE',  ( 0.000000000000000000, 0.000000000000000000, 3.000000000000000000 ) ) ;
#109 = DIRECTION ( 'NONE',  ( -1.000000000000000000, 0.000000000000000000, 0.000000000000000000 ) ) ;
#110 = PLANE ( 'NONE',  #201 ) ;
#111 = PRODUCT_RELATED_PRODUCT_CATEGORY ( 'detail', '', ( #292 ) ) ;
#112 = CARTESIAN_POINT ( 'NONE',  ( 0.000000000000000000, 0.000000000000000000, 3.199999999999994404 ) ) ;
#113 = FACE_OUTER_BOUND ( 'NONE', #20, .T. ) ;
#114 = PRODUCT_DEFINITION_FORMATION_WITH_SPECIFIED_SOURCE ( 'LIBOVOLNÝ', '', #292, .NOT_KNOWN. ) ;
#115 = PERSON_AND_ORGANIZATION ( #165, #83 ) ;
#116 = CALENDAR_DATE ( 2022, 20, 6 ) ;
#117 = APPROVAL_DATE_TIME ( #236, #227 ) ;
#118 = LOCAL_TIME ( 12, 16, 40.00000000000000000, #74 ) ;
#119 = DIRECTION ( 'NONE',  ( 1.000000000000000000, 0.000000000000000000, -0.000000000000000000 ) ) ;
#120 = FACE_OUTER_BOUND ( 'NONE', #286, .T. ) ;
#121 = AXIS2_PLACEMENT_3D ( 'NONE', #149, #225, #252 ) ;
#122 = CC_DESIGN_DATE_AND_TIME_ASSIGNMENT ( #256, #204, ( #241 ) ) ;
#123 = ORIENTED_EDGE ( 'NONE', *, *, #195, .T. ) ;
#124 = TOROIDAL_SURFACE ( 'NONE', #257, 1.700000000000000400, 0.2000000000000000111 ) ;
#125 = PERSON_AND_ORGANIZATION ( #165, #83 ) ;
#126 = ORIENTED_EDGE ( 'NONE', *, *, #57, .F. ) ;
#127 = APPROVAL_STATUS ( 'not_yet_approved' ) ;
#128 = CC_DESIGN_PERSON_AND_ORGANIZATION_ASSIGNMENT ( #307, #44, ( #292 ) ) ;
#129 = ORIENTED_EDGE ( 'NONE', *, *, #171, .F. ) ;
#130 = APPROVAL_PERSON_ORGANIZATION ( #264, #138, #47 ) ;
#131 = CARTESIAN_POINT ( 'NONE',  ( 0.000000000000000000, 0.000000000000000000, 128.0000000000000000 ) ) ;
#132 = DIRECTION ( 'NONE',  ( 0.000000000000000000, 0.000000000000000000, 1.000000000000000000 ) ) ;
#133 = DIRECTION ( 'NONE',  ( 0.000000000000000000, 0.000000000000000000, -1.000000000000000000 ) ) ;
#134 = DIRECTION ( 'NONE',  ( 0.000000000000000000, 0.000000000000000000, 1.000000000000000000 ) ) ;
#135 = DIRECTION ( 'NONE',  ( 0.000000000000000000, 0.000000000000000000, 1.000000000000000000 ) ) ;
#136 = EDGE_LOOP ( 'NONE', ( #103, #5, #107, #244 ) ) ;
#137 = APPROVAL_ROLE ( '' ) ;
#138 = APPROVAL ( #263, 'NEURÈENÝ' ) ;
#139 = CIRCLE ( 'NONE', #33, 1.500000000000000222 ) ;
#140 = ORIENTED_EDGE ( 'NONE', *, *, #92, .F. ) ;
#141 = PERSON_AND_ORGANIZATION_ROLE ( 'creator' ) ;
#142 = ORIENTED_EDGE ( 'NONE', *, *, #171, .T. ) ;
#143 = AXIS2_PLACEMENT_3D ( 'NONE', #278, #135, #199 ) ;
#144 = ADVANCED_FACE ( 'NONE', ( #228 ), #124, .F. ) ;
#145 = VERTEX_POINT ( 'NONE', #63 ) ;
#146 = CARTESIAN_POINT ( 'NONE',  ( 0.000000000000000000, 0.000000000000000000, 128.0000000000000000 ) ) ;
#147 = DIRECTION ( 'NONE',  ( 1.000000000000000000, 0.000000000000000000, 0.000000000000000000 ) ) ;
#148 =( GEOMETRIC_REPRESENTATION_CONTEXT ( 3 ) GLOBAL_UNCERTAINTY_ASSIGNED_CONTEXT ( ( #235 ) ) GLOBAL_UNIT_ASSIGNED_CONTEXT ( ( #254, #37, #232 ) ) REPRESENTATION_CONTEXT ( 'NONE', 'WORKASPACE' ) );
#149 = CARTESIAN_POINT ( 'NONE',  ( -1.700000000000000400, 2.081899558550500773E-16, 3.199999999999994404 ) ) ;
#150 = CC_DESIGN_PERSON_AND_ORGANIZATION_ASSIGNMENT ( #115, #203, ( #241 ) ) ;
#151 = CARTESIAN_POINT ( 'NONE',  ( -1.700000000000000400, 2.081899558550500773E-16, 2.999999999999997335 ) ) ;
#152 = LINE ( 'NONE', #302, #65 ) ;
#153 = AXIS2_PLACEMENT_3D ( 'NONE', #90, #61, #88 ) ;
#154 = DIRECTION ( 'NONE',  ( -0.000000000000000000, -0.000000000000000000, -1.000000000000000000 ) ) ;
#155 = CC_DESIGN_PERSON_AND_ORGANIZATION_ASSIGNMENT ( #53, #213, ( #273 ) ) ;
#156 = DIRECTION ( 'NONE',  ( 0.000000000000000000, 0.000000000000000000, 1.000000000000000000 ) ) ;
#157 = CIRCLE ( 'NONE', #197, 0.2000000000000000944 ) ;
#158 = COORDINATED_UNIVERSAL_TIME_OFFSET ( 1, 0, .AHEAD. ) ;
#159 = AXIS2_PLACEMENT_3D ( 'NONE', #108, #59, #196 ) ;
#160 = EDGE_CURVE ( 'NONE', #287, #212, #36, .T. ) ;
#161 = CARTESIAN_POINT ( 'NONE',  ( -1.500000000000000222, 0.000000000000000000, 128.0000000000000000 ) ) ;
#162 = ORIENTED_EDGE ( 'NONE', *, *, #160, .T. ) ;
#163 = DIRECTION ( 'NONE',  ( 0.000000000000000000, 0.000000000000000000, 1.000000000000000000 ) ) ;
#164 = CLOSED_SHELL ( 'NONE', ( #19, #270, #35, #102, #106, #301, #182, #210, #144 ) ) ;
#165 = PERSON ( 'NEURÈENÝ', 'NEURÈENÝ', 'NEURÈENÝ', ('NEURÈENÝ'), ('NEURÈENÝ'), ('NEURÈENÝ') ) ;
#166 = PERSON_AND_ORGANIZATION_ROLE ( 'design_supplier' ) ;
#167 = ADVANCED_BREP_SHAPE_REPRESENTATION ( 'fe6e', ( #15, #215 ), #148 ) ;
#168 = AXIS2_PLACEMENT_3D ( 'NONE', #177, #249, #60 ) ;
#169 = VERTEX_POINT ( 'NONE', #178 ) ;
#170 = APPROVAL_PERSON_ORGANIZATION ( #93, #222, #188 ) ;
#171 = EDGE_CURVE ( 'NONE', #212, #145, #10, .T. ) ;
#172 = ORIENTED_EDGE ( 'NONE', *, *, #266, .T. ) ;
#173 = ORIENTED_EDGE ( 'NONE', *, *, #195, .F. ) ;
#174 = DIRECTION ( 'NONE',  ( -0.000000000000000000, -0.000000000000000000, -1.000000000000000000 ) ) ;
#175 = EDGE_CURVE ( 'NONE', #288, #169, #7, .T. ) ;
#176 = FACE_OUTER_BOUND ( 'NONE', #24, .T. ) ;
#177 = CARTESIAN_POINT ( 'NONE',  ( 0.000000000000000000, 0.000000000000000000, 128.0000000000000000 ) ) ;
#178 = CARTESIAN_POINT ( 'NONE',  ( -3.000000000000000444, 0.000000000000000000, 0.000000000000000000 ) ) ;
#179 = CARTESIAN_POINT ( 'NONE',  ( -1.500000000000000222, 0.000000000000000000, 128.0000000000000000 ) ) ;
#180 = DIRECTION ( 'NONE',  ( -0.000000000000000000, -0.000000000000000000, -1.000000000000000000 ) ) ;
#181 = EDGE_LOOP ( 'NONE', ( #126, #26 ) ) ;
#182 = ADVANCED_FACE ( 'NONE', ( #64 ), #246, .T. ) ;
#183 = CALENDAR_DATE ( 2022, 20, 6 ) ;
#184 = CARTESIAN_POINT ( 'NONE',  ( 1.500000000000000222, 1.836970198721030181E-16, 128.0000000000000000 ) ) ;
#185 = TOROIDAL_SURFACE ( 'NONE', #77, 1.700000000000000400, 0.2000000000000000111 ) ;
#186 = CALENDAR_DATE ( 2022, 20, 6 ) ;
#187 = CARTESIAN_POINT ( 'NONE',  ( 0.000000000000000000, 0.000000000000000000, 0.000000000000000000 ) ) ;
#188 = APPROVAL_ROLE ( '' ) ;
#189 = ORIENTED_EDGE ( 'NONE', *, *, #66, .T. ) ;
#190 = APPROVAL_DATE_TIME ( #267, #222 ) ;
#191 = VERTEX_POINT ( 'NONE', #84 ) ;
#192 = EDGE_CURVE ( 'NONE', #27, #242, #296, .T. ) ;
#193 = FACE_OUTER_BOUND ( 'NONE', #101, .T. ) ;
#194 = CARTESIAN_POINT ( 'NONE',  ( 0.000000000000000000, 0.000000000000000000, 3.199999999999994404 ) ) ;
#195 = EDGE_CURVE ( 'NONE', #288, #48, #62, .T. ) ;
#196 = DIRECTION ( 'NONE',  ( 1.000000000000000000, 0.000000000000000000, 0.000000000000000000 ) ) ;
#197 = AXIS2_PLACEMENT_3D ( 'NONE', #223, #30, #133 ) ;
#198 = CARTESIAN_POINT ( 'NONE',  ( 0.000000000000000000, 0.000000000000000000, 128.0000000000000000 ) ) ;
#199 = DIRECTION ( 'NONE',  ( 1.000000000000000000, 0.000000000000000000, 0.000000000000000000 ) ) ;
#200 = DIRECTION ( 'NONE',  ( 0.000000000000000000, 0.000000000000000000, 1.000000000000000000 ) ) ;
#201 = AXIS2_PLACEMENT_3D ( 'NONE', #31, #202, #34 ) ;
#202 = DIRECTION ( 'NONE',  ( 0.000000000000000000, 0.000000000000000000, 1.000000000000000000 ) ) ;
#203 = PERSON_AND_ORGANIZATION_ROLE ( 'creator' ) ;
#204 = DATE_TIME_ROLE ( 'creation_date' ) ;
#205 = EDGE_CURVE ( 'NONE', #191, #287, #40, .T. ) ;
#206 = CIRCLE ( 'NONE', #76, 1.500000000000000222 ) ;
#207 = DIRECTION ( 'NONE',  ( 1.000000000000000000, 0.000000000000000000, 0.000000000000000000 ) ) ;
#208 = AXIS2_PLACEMENT_3D ( 'NONE', #39, #180, #305 ) ;
#209 = CARTESIAN_POINT ( 'NONE',  ( 0.000000000000000000, 0.000000000000000000, 3.199999999999994404 ) ) ;
#210 = ADVANCED_FACE ( 'NONE', ( #176 ), #274, .T. ) ;
#211 = FACE_OUTER_BOUND ( 'NONE', #181, .T. ) ;
#212 = VERTEX_POINT ( 'NONE', #226 ) ;
#213 = PERSON_AND_ORGANIZATION_ROLE ( 'classification_officer' ) ;
#214 = DIRECTION ( 'NONE',  ( 1.000000000000000000, 0.000000000000000000, 0.000000000000000000 ) ) ;
#215 = AXIS2_PLACEMENT_3D ( 'NONE', #238, #22, #16 ) ;
#216 = ORIENTED_EDGE ( 'NONE', *, *, #275, .F. ) ;
#217 = DATE_AND_TIME ( #72, #221 ) ;
#218 = ORIENTED_EDGE ( 'NONE', *, *, #175, .F. ) ;
#219 = ORIENTED_EDGE ( 'NONE', *, *, #86, .T. ) ;
#220 = ORIENTED_EDGE ( 'NONE', *, *, #86, .F. ) ;
#221 = LOCAL_TIME ( 12, 16, 40.00000000000000000, #290 ) ;
#222 = APPROVAL ( #127, 'NEURÈENÝ' ) ;
#223 = CARTESIAN_POINT ( 'NONE',  ( 1.700000000000000400, 0.000000000000000000, 3.199999999999994404 ) ) ;
#224 = DIRECTION ( 'NONE',  ( 0.000000000000000000, 0.000000000000000000, 1.000000000000000000 ) ) ;
#225 = DIRECTION ( 'NONE',  ( 1.224646799147353207E-16, 1.000000000000000000, -0.000000000000000000 ) ) ;
#226 = CARTESIAN_POINT ( 'NONE',  ( -1.500000000000000222, 0.000000000000000000, 3.199999999999994404 ) ) ;
#227 = APPROVAL ( #17, 'NEURÈENÝ' ) ;
#228 = FACE_OUTER_BOUND ( 'NONE', #272, .T. ) ;
#229 = CIRCLE ( 'NONE', #38, 3.000000000000000444 ) ;
#230 = CIRCLE ( 'NONE', #58, 3.000000000000000444 ) ;
#231 = LOCAL_TIME ( 12, 16, 40.00000000000000000, #28 ) ;
#232 =( NAMED_UNIT ( * ) SI_UNIT ( $, .STERADIAN. ) SOLID_ANGLE_UNIT ( ) );
#233 = APPLICATION_PROTOCOL_DEFINITION ( 'international standard', 'config_control_design', 1994, #253 ) ;
#234 = EDGE_LOOP ( 'NONE', ( #269, #81 ) ) ;
#235 = UNCERTAINTY_MEASURE_WITH_UNIT (LENGTH_MEASURE( 1.000000000000000082E-05 ), #254, 'distance_accuracy_value', 'NONE');
#236 = DATE_AND_TIME ( #183, #89 ) ;
#237 = VECTOR ( 'NONE', #280, 1000.000000000000000 ) ;
#238 = CARTESIAN_POINT ( 'NONE',  ( 0.000000000000000000, 0.000000000000000000, 0.000000000000000000 ) ) ;
#239 = ORIENTED_EDGE ( 'NONE', *, *, #57, .T. ) ;
#240 = DATE_AND_TIME ( #23, #118 ) ;
#241 = PRODUCT_DEFINITION ( 'NEZNÁMÝ', '', #114, #43 ) ;
#242 = VERTEX_POINT ( 'NONE', #151 ) ;
#243 = ORIENTED_EDGE ( 'NONE', *, *, #94, .F. ) ;
#244 = ORIENTED_EDGE ( 'NONE', *, *, #160, .F. ) ;
#245 = CC_DESIGN_PERSON_AND_ORGANIZATION_ASSIGNMENT ( #125, #141, ( #114 ) ) ;
#246 = CYLINDRICAL_SURFACE ( 'NONE', #21, 1.500000000000000222 ) ;
#247 = CARTESIAN_POINT ( 'NONE',  ( 0.000000000000000000, 0.000000000000000000, 0.000000000000000000 ) ) ;
#248 = DIRECTION ( 'NONE',  ( 1.000000000000000000, 0.000000000000000000, 0.000000000000000000 ) ) ;
#249 = DIRECTION ( 'NONE',  ( 0.000000000000000000, 0.000000000000000000, 1.000000000000000000 ) ) ;
#250 = AXIS2_PLACEMENT_3D ( 'NONE', #45, #42, #119 ) ;
#251 = LOCAL_TIME ( 12, 16, 40.00000000000000000, #91 ) ;
#252 = DIRECTION ( 'NONE',  ( -1.000000000000000000, 1.224646799147353207E-16, 0.000000000000000000 ) ) ;
#253 = APPLICATION_CONTEXT ( 'configuration controlled 3d designs of mechanical parts and assemblies' ) ;
#254 =( LENGTH_UNIT ( ) NAMED_UNIT ( * ) SI_UNIT ( .MILLI., .METRE. ) );
#255 = CIRCLE ( 'NONE', #121, 0.2000000000000000944 ) ;
#256 = DATE_AND_TIME ( #116, #251 ) ;
#257 = AXIS2_PLACEMENT_3D ( 'NONE', #112, #224, #9 ) ;
#258 = APPROVAL_PERSON_ORGANIZATION ( #18, #227, #137 ) ;
#259 = ORIENTED_EDGE ( 'NONE', *, *, #283, .F. ) ;
#260 = FACE_OUTER_BOUND ( 'NONE', #136, .T. ) ;
#261 = PLANE ( 'NONE',  #250 ) ;
#262 = CC_DESIGN_APPROVAL ( #227, ( #241 ) ) ;
#263 = APPROVAL_STATUS ( 'not_yet_approved' ) ;
#264 = PERSON_AND_ORGANIZATION ( #165, #83 ) ;
#265 = ORIENTED_EDGE ( 'NONE', *, *, #266, .F. ) ;
#266 = EDGE_CURVE ( 'NONE', #48, #288, #230, .T. ) ;
#267 = DATE_AND_TIME ( #186, #231 ) ;
#268 = CYLINDRICAL_SURFACE ( 'NONE', #87, 3.000000000000000444 ) ;
#269 = ORIENTED_EDGE ( 'NONE', *, *, #192, .T. ) ;
#270 = ADVANCED_FACE ( 'NONE', ( #260 ), #304, .T. ) ;
#271 = ORIENTED_EDGE ( 'NONE', *, *, #175, .T. ) ;
#272 = EDGE_LOOP ( 'NONE', ( #220, #259, #52, #68 ) ) ;
#273 = SECURITY_CLASSIFICATION ( '', '', #4 ) ;
#274 = PLANE ( 'NONE',  #168 ) ;
#275 = EDGE_CURVE ( 'NONE', #191, #145, #95, .T. ) ;
#276 = DIRECTION ( 'NONE',  ( -0.000000000000000000, -0.000000000000000000, -1.000000000000000000 ) ) ;
#277 = AXIS2_PLACEMENT_3D ( 'NONE', #75, #78, #147 ) ;
#278 = CARTESIAN_POINT ( 'NONE',  ( 0.000000000000000000, 0.000000000000000000, 3.199999999999994404 ) ) ;
#279 = CYLINDRICAL_SURFACE ( 'NONE', #153, 3.000000000000000444 ) ;
#280 = DIRECTION ( 'NONE',  ( -0.000000000000000000, -0.000000000000000000, -1.000000000000000000 ) ) ;
#281 = DIRECTION ( 'NONE',  ( 1.000000000000000000, 0.000000000000000000, 0.000000000000000000 ) ) ;
#282 = DIRECTION ( 'NONE',  ( 0.000000000000000000, 0.000000000000000000, 1.000000000000000000 ) ) ;
#283 = EDGE_CURVE ( 'NONE', #145, #212, #139, .T. ) ;
#284 = AXIS2_PLACEMENT_3D ( 'NONE', #187, #82, #248 ) ;
#285 = APPLICATION_PROTOCOL_DEFINITION ( 'international standard', 'config_control_design', 1994, #289 ) ;
#286 = EDGE_LOOP ( 'NONE', ( #129, #219, #3, #140 ) ) ;
#287 = VERTEX_POINT ( 'NONE', #161 ) ;
#288 = VERTEX_POINT ( 'NONE', #96 ) ;
#289 = APPLICATION_CONTEXT ( 'configuration controlled 3d designs of mechanical parts and assemblies' ) ;
#290 = COORDINATED_UNIVERSAL_TIME_OFFSET ( 1, 0, .AHEAD. ) ;
#291 = CARTESIAN_POINT ( 'NONE',  ( 0.000000000000000000, 0.000000000000000000, 3.000000000000000000 ) ) ;
#292 = PRODUCT ( 'fe6e', 'fe6e', '', ( #67 ) ) ;
#293 = VERTEX_POINT ( 'NONE', #69 ) ;
#294 = CARTESIAN_POINT ( 'NONE',  ( 0.000000000000000000, 0.000000000000000000, 3.000000000000000000 ) ) ;
#295 = CIRCLE ( 'NONE', #277, 1.700000000000000400 ) ;
#296 = CIRCLE ( 'NONE', #159, 1.700000000000000400 ) ;
#297 = DIRECTION ( 'NONE',  ( 1.000000000000000000, 0.000000000000000000, 0.000000000000000000 ) ) ;
#298 = CC_DESIGN_APPROVAL ( #138, ( #273 ) ) ;
#299 = CARTESIAN_POINT ( 'NONE',  ( -3.000000000000000444, 0.000000000000000000, 3.000000000000000000 ) ) ;
#300 = DIRECTION ( 'NONE',  ( -0.000000000000000000, -0.000000000000000000, -1.000000000000000000 ) ) ;
#301 = ADVANCED_FACE ( 'NONE', ( #211 ), #261, .F. ) ;
#302 = CARTESIAN_POINT ( 'NONE',  ( 3.000000000000000444, 3.673940397442060361E-16, 3.000000000000000000 ) ) ;
#303 = VECTOR ( 'NONE', #154, 1000.000000000000000 ) ;
#304 = CYLINDRICAL_SURFACE ( 'NONE', #208, 1.500000000000000222 ) ;
#305 = DIRECTION ( 'NONE',  ( -1.000000000000000000, 0.000000000000000000, 0.000000000000000000 ) ) ;
#306 = AXIS2_PLACEMENT_3D ( 'NONE', #294, #132, #85 ) ;
#307 = PERSON_AND_ORGANIZATION ( #165, #83 ) ;
ENDSEC;
END-ISO-10303-21;
