ISO-10303-21;
HEADER;
FILE_DESCRIPTION (( 'STEP AP203' ),
    '1' );
FILE_NAME ('8fc4.STEP',
    '2022-06-20T10:19:10',
    ( '' ),
    ( '' ),
    'SwSTEP 2.0',
    'SolidWorks 2019',
    '' );
FILE_SCHEMA (( 'CONFIG_CONTROL_DESIGN' ));
ENDSEC;

DATA;
#1 = ORIENTED_EDGE ( 'NONE', *, *, #78, .T. ) ;
#2 = COORDINATED_UNIVERSAL_TIME_OFFSET ( 1, 0, .AHEAD. ) ;
#3 = ORIENTED_EDGE ( 'NONE', *, *, #263, .T. ) ;
#4 = EDGE_CURVE ( 'NONE', #223, #134, #185, .T. ) ;
#5 = FACE_OUTER_BOUND ( 'NONE', #153, .T. ) ;
#6 = EDGE_LOOP ( 'NONE', ( #141, #15, #28, #258 ) ) ;
#7 = ADVANCED_FACE ( 'NONE', ( #20 ), #70, .T. ) ;
#8 = FACE_OUTER_BOUND ( 'NONE', #159, .T. ) ;
#9 = FACE_OUTER_BOUND ( 'NONE', #198, .T. ) ;
#10 = AXIS2_PLACEMENT_3D ( 'NONE', #120, #286, #222 ) ;
#11 = CIRCLE ( 'NONE', #287, 0.2000000000000000944 ) ;
#12 = CC_DESIGN_PERSON_AND_ORGANIZATION_ASSIGNMENT ( #25, #91, ( #60 ) ) ;
#13 = DIRECTION ( 'NONE',  ( 0.000000000000000000, 0.000000000000000000, 1.000000000000000000 ) ) ;
#14 = FACE_OUTER_BOUND ( 'NONE', #37, .T. ) ;
#15 = ORIENTED_EDGE ( 'NONE', *, *, #157, .T. ) ;
#16 = DIRECTION ( 'NONE',  ( 1.000000000000000000, 0.000000000000000000, -0.000000000000000000 ) ) ;
#17 = ORIENTED_EDGE ( 'NONE', *, *, #4, .F. ) ;
#18 = COORDINATED_UNIVERSAL_TIME_OFFSET ( 1, 0, .AHEAD. ) ;
#19 = DIRECTION ( 'NONE',  ( 1.000000000000000000, 0.000000000000000000, 0.000000000000000000 ) ) ;
#20 = FACE_OUTER_BOUND ( 'NONE', #6, .T. ) ;
#21 = MANIFOLD_SOLID_BREP ( 'Zaoblit1', #251 ) ;
#22 = CARTESIAN_POINT ( 'NONE',  ( 0.000000000000000000, 0.000000000000000000, 2.000000000000000000 ) ) ;
#23 = DIRECTION ( 'NONE',  ( -0.000000000000000000, -0.000000000000000000, -1.000000000000000000 ) ) ;
#24 = CIRCLE ( 'NONE', #259, 2.000000000000000000 ) ;
#25 = PERSON_AND_ORGANIZATION ( #94, #292 ) ;
#26 = DIRECTION ( 'NONE',  ( 1.000000000000000000, 0.000000000000000000, 0.000000000000000000 ) ) ;
#27 = APPLICATION_CONTEXT ( 'configuration controlled 3d designs of mechanical parts and assemblies' ) ;
#28 = ORIENTED_EDGE ( 'NONE', *, *, #4, .T. ) ;
#29 = CC_DESIGN_PERSON_AND_ORGANIZATION_ASSIGNMENT ( #87, #307, ( #38 ) ) ;
#30 = ORIENTED_EDGE ( 'NONE', *, *, #217, .T. ) ;
#31 = AXIS2_PLACEMENT_3D ( 'NONE', #53, #214, #142 ) ;
#32 = DIRECTION ( 'NONE',  ( 1.000000000000000000, 0.000000000000000000, 0.000000000000000000 ) ) ;
#33 = CARTESIAN_POINT ( 'NONE',  ( -1.100000000000000089, 0.000000000000000000, 2.200000000000007283 ) ) ;
#34 = CC_DESIGN_DATE_AND_TIME_ASSIGNMENT ( #116, #124, ( #75 ) ) ;
#35 = EDGE_CURVE ( 'NONE', #161, #134, #164, .T. ) ;
#36 = DIRECTION ( 'NONE',  ( 1.000000000000000000, 0.000000000000000000, -0.000000000000000000 ) ) ;
#37 = EDGE_LOOP ( 'NONE', ( #187, #58, #115, #209 ) ) ;
#38 = PRODUCT_DEFINITION ( 'NEZNÁMÝ', '', #158, #276 ) ;
#39 = CC_DESIGN_APPROVAL ( #135, ( #158 ) ) ;
#40 = CARTESIAN_POINT ( 'NONE',  ( 0.000000000000000000, 0.000000000000000000, 162.0000000000000000 ) ) ;
#41 = AXIS2_PLACEMENT_3D ( 'NONE', #166, #74, #294 ) ;
#42 = DIRECTION ( 'NONE',  ( -0.000000000000000000, -0.000000000000000000, -1.000000000000000000 ) ) ;
#43 = DIRECTION ( 'NONE',  ( -0.000000000000000000, -0.000000000000000000, -1.000000000000000000 ) ) ;
#44 = ADVANCED_FACE ( 'NONE', ( #5 ), #234, .T. ) ;
#45 = VERTEX_POINT ( 'NONE', #92 ) ;
#46 =( NAMED_UNIT ( * ) SI_UNIT ( $, .STERADIAN. ) SOLID_ANGLE_UNIT ( ) );
#47 = CYLINDRICAL_SURFACE ( 'NONE', #138, 1.100000000000000089 ) ;
#48 = CC_DESIGN_APPROVAL ( #306, ( #75 ) ) ;
#49 = FACE_OUTER_BOUND ( 'NONE', #80, .T. ) ;
#50 = AXIS2_PLACEMENT_3D ( 'NONE', #167, #42, #59 ) ;
#51 = DIRECTION ( 'NONE',  ( 0.000000000000000000, 0.000000000000000000, 1.000000000000000000 ) ) ;
#52 = DIRECTION ( 'NONE',  ( 1.000000000000000000, 0.000000000000000000, 0.000000000000000000 ) ) ;
#53 = CARTESIAN_POINT ( 'NONE',  ( 0.000000000000000000, 0.000000000000000000, 2.200000000000007283 ) ) ;
#54 = PLANE ( 'NONE',  #192 ) ;
#55 = PERSON_AND_ORGANIZATION_ROLE ( 'design_supplier' ) ;
#56 = EDGE_CURVE ( 'NONE', #183, #253, #132, .T. ) ;
#57 = AXIS2_PLACEMENT_3D ( 'NONE', #256, #109, #139 ) ;
#58 = ORIENTED_EDGE ( 'NONE', *, *, #212, .F. ) ;
#59 = DIRECTION ( 'NONE',  ( 1.000000000000000000, 0.000000000000000000, 0.000000000000000000 ) ) ;
#60 = PRODUCT ( '8fc4', '8fc4', '', ( #180 ) ) ;
#61 = CARTESIAN_POINT ( 'NONE',  ( 1.100000000000000089, 1.347111479062088503E-16, 162.0000000000000000 ) ) ;
#62 = CIRCLE ( 'NONE', #246, 1.100000000000000089 ) ;
#63 = DIRECTION ( 'NONE',  ( 0.000000000000000000, 0.000000000000000000, 1.000000000000000000 ) ) ;
#64 = ADVANCED_FACE ( 'NONE', ( #49 ), #47, .T. ) ;
#65 = ORIENTED_EDGE ( 'NONE', *, *, #298, .F. ) ;
#66 = AXIS2_PLACEMENT_3D ( 'NONE', #181, #279, #68 ) ;
#67 = COORDINATED_UNIVERSAL_TIME_OFFSET ( 1, 0, .AHEAD. ) ;
#68 = DIRECTION ( 'NONE',  ( 1.000000000000000000, 0.000000000000000000, 0.000000000000000000 ) ) ;
#69 = ORIENTED_EDGE ( 'NONE', *, *, #212, .T. ) ;
#70 = CYLINDRICAL_SURFACE ( 'NONE', #57, 2.000000000000000000 ) ;
#71 = VERTEX_POINT ( 'NONE', #261 ) ;
#72 = PERSON_AND_ORGANIZATION ( #94, #292 ) ;
#73 = DIRECTION ( 'NONE',  ( -0.000000000000000000, -0.000000000000000000, -1.000000000000000000 ) ) ;
#74 = DIRECTION ( 'NONE',  ( 0.000000000000000000, 0.000000000000000000, 1.000000000000000000 ) ) ;
#75 = SECURITY_CLASSIFICATION ( '', '', #140 ) ;
#76 = PERSON_AND_ORGANIZATION_ROLE ( 'creator' ) ;
#77 = LOCAL_TIME ( 12, 19, 10.00000000000000000, #2 ) ;
#78 = EDGE_CURVE ( 'NONE', #99, #71, #288, .T. ) ;
#79 = DIRECTION ( 'NONE',  ( 0.000000000000000000, 0.000000000000000000, 1.000000000000000000 ) ) ;
#80 = EDGE_LOOP ( 'NONE', ( #271, #30, #69, #126 ) ) ;
#81 = EDGE_CURVE ( 'NONE', #253, #183, #168, .T. ) ;
#82 = CARTESIAN_POINT ( 'NONE',  ( 1.300000000000000266, 0.000000000000000000, 2.200000000000007283 ) ) ;
#83 = APPLICATION_CONTEXT ( 'configuration controlled 3d designs of mechanical parts and assemblies' ) ;
#84 = CARTESIAN_POINT ( 'NONE',  ( 2.000000000000000000, 2.449293598294706414E-16, 2.000000000000000000 ) ) ;
#85 = ORIENTED_EDGE ( 'NONE', *, *, #263, .F. ) ;
#86 = VECTOR ( 'NONE', #211, 1000.000000000000000 ) ;
#87 = PERSON_AND_ORGANIZATION ( #94, #292 ) ;
#88 = ORIENTED_EDGE ( 'NONE', *, *, #217, .F. ) ;
#89 = LOCAL_TIME ( 12, 19, 10.00000000000000000, #266 ) ;
#90 = ADVANCED_FACE ( 'NONE', ( #165 ), #114, .F. ) ;
#91 = PERSON_AND_ORGANIZATION_ROLE ( 'design_owner' ) ;
#92 = CARTESIAN_POINT ( 'NONE',  ( 1.100000000000000089, 1.347111479062088503E-16, 2.200000000000007283 ) ) ;
#93 = DATE_AND_TIME ( #296, #176 ) ;
#94 = PERSON ( 'NEURÈENÝ', 'NEURÈENÝ', 'NEURÈENÝ', ('NEURÈENÝ'), ('NEURÈENÝ'), ('NEURÈENÝ') ) ;
#95 = CARTESIAN_POINT ( 'NONE',  ( -1.300000000000000266, 1.592040838891559342E-16, 2.200000000000007283 ) ) ;
#96 = ORIENTED_EDGE ( 'NONE', *, *, #170, .T. ) ;
#97 = PERSON_AND_ORGANIZATION_ROLE ( 'classification_officer' ) ;
#98 = ORIENTED_EDGE ( 'NONE', *, *, #174, .T. ) ;
#99 = VERTEX_POINT ( 'NONE', #33 ) ;
#100 = CARTESIAN_POINT ( 'NONE',  ( -2.000000000000000000, 0.000000000000000000, 2.000000000000000000 ) ) ;
#101 = DIRECTION ( 'NONE',  ( -0.000000000000000000, -0.000000000000000000, -1.000000000000000000 ) ) ;
#102 = SHAPE_DEFINITION_REPRESENTATION ( #240, #213 ) ;
#103 = AXIS2_PLACEMENT_3D ( 'NONE', #280, #179, #19 ) ;
#104 = ADVANCED_FACE ( 'NONE', ( #147, #8 ), #54, .T. ) ;
#105 = LOCAL_TIME ( 12, 19, 10.00000000000000000, #67 ) ;
#106 = CARTESIAN_POINT ( 'NONE',  ( 0.000000000000000000, 0.000000000000000000, 2.000000000000000000 ) ) ;
#107 = EDGE_LOOP ( 'NONE', ( #207, #1, #65, #249 ) ) ;
#108 = DIRECTION ( 'NONE',  ( -1.000000000000000000, 0.000000000000000000, 0.000000000000000000 ) ) ;
#109 = DIRECTION ( 'NONE',  ( -0.000000000000000000, -0.000000000000000000, -1.000000000000000000 ) ) ;
#110 = APPLICATION_PROTOCOL_DEFINITION ( 'international standard', 'config_control_design', 1994, #83 ) ;
#111 = AXIS2_PLACEMENT_3D ( 'NONE', #304, #23, #184 ) ;
#112 = CARTESIAN_POINT ( 'NONE',  ( 0.000000000000000000, 0.000000000000000000, 162.0000000000000000 ) ) ;
#113 = CC_DESIGN_PERSON_AND_ORGANIZATION_ASSIGNMENT ( #169, #55, ( #158 ) ) ;
#114 = PLANE ( 'NONE',  #220 ) ;
#115 = ORIENTED_EDGE ( 'NONE', *, *, #189, .T. ) ;
#116 = DATE_AND_TIME ( #233, #77 ) ;
#117 = CC_DESIGN_DATE_AND_TIME_ASSIGNMENT ( #93, #182, ( #38 ) ) ;
#118 = ORIENTED_EDGE ( 'NONE', *, *, #298, .T. ) ;
#119 = AXIS2_PLACEMENT_3D ( 'NONE', #22, #43, #156 ) ;
#120 = CARTESIAN_POINT ( 'NONE',  ( 0.000000000000000000, 0.000000000000000000, 2.200000000000007283 ) ) ;
#121 = CARTESIAN_POINT ( 'NONE',  ( 2.000000000000000000, 2.449293598294706414E-16, 0.000000000000000000 ) ) ;
#122 = CIRCLE ( 'NONE', #10, 1.100000000000000089 ) ;
#123 = CIRCLE ( 'NONE', #50, 1.300000000000000266 ) ;
#124 = DATE_TIME_ROLE ( 'classification_date' ) ;
#125 = CARTESIAN_POINT ( 'NONE',  ( -1.100000000000000089, 0.000000000000000000, 162.0000000000000000 ) ) ;
#126 = ORIENTED_EDGE ( 'NONE', *, *, #255, .F. ) ;
#127 = AXIS2_PLACEMENT_3D ( 'NONE', #285, #101, #108 ) ;
#128 = DIRECTION ( 'NONE',  ( 0.000000000000000000, -1.000000000000000000, 0.000000000000000000 ) ) ;
#129 = CARTESIAN_POINT ( 'NONE',  ( 2.000000000000000000, 2.449293598294706414E-16, 2.000000000000000000 ) ) ;
#130 = ORIENTED_EDGE ( 'NONE', *, *, #255, .T. ) ;
#131 = DIRECTION ( 'NONE',  ( -0.000000000000000000, -0.000000000000000000, -1.000000000000000000 ) ) ;
#132 = CIRCLE ( 'NONE', #66, 1.100000000000000089 ) ;
#133 = CARTESIAN_POINT ( 'NONE',  ( 0.000000000000000000, 0.000000000000000000, 0.000000000000000000 ) ) ;
#134 = VERTEX_POINT ( 'NONE', #237 ) ;
#135 = APPROVAL ( #178, 'NEURÈENÝ' ) ;
#136 =( LENGTH_UNIT ( ) NAMED_UNIT ( * ) SI_UNIT ( .MILLI., .METRE. ) );
#137 = DIRECTION ( 'NONE',  ( 1.224646799147353207E-16, 1.000000000000000000, -0.000000000000000000 ) ) ;
#138 = AXIS2_PLACEMENT_3D ( 'NONE', #112, #205, #186 ) ;
#139 = DIRECTION ( 'NONE',  ( -1.000000000000000000, 0.000000000000000000, 0.000000000000000000 ) ) ;
#140 = SECURITY_CLASSIFICATION_LEVEL ( 'unclassified' ) ;
#141 = ORIENTED_EDGE ( 'NONE', *, *, #199, .F. ) ;
#142 = DIRECTION ( 'NONE',  ( 1.000000000000000000, 0.000000000000000000, 0.000000000000000000 ) ) ;
#143 = VECTOR ( 'NONE', #131, 1000.000000000000000 ) ;
#144 = LINE ( 'NONE', #248, #143 ) ;
#145 = VECTOR ( 'NONE', #202, 1000.000000000000000 ) ;
#146 = APPROVAL_ROLE ( '' ) ;
#147 = FACE_BOUND ( 'NONE', #208, .T. ) ;
#148 = VERTEX_POINT ( 'NONE', #84 ) ;
#149 = CYLINDRICAL_SURFACE ( 'NONE', #127, 2.000000000000000000 ) ;
#150 = APPROVAL_PERSON_ORGANIZATION ( #177, #135, #254 ) ;
#151 = TOROIDAL_SURFACE ( 'NONE', #31, 1.300000000000000266, 0.2000000000000000111 ) ;
#152 = DIRECTION ( 'NONE',  ( 0.000000000000000000, 0.000000000000000000, 1.000000000000000000 ) ) ;
#153 = EDGE_LOOP ( 'NONE', ( #88, #281, #130, #232 ) ) ;
#154 = CC_DESIGN_PERSON_AND_ORGANIZATION_ASSIGNMENT ( #239, #97, ( #75 ) ) ;
#155 = DATE_AND_TIME ( #275, #193 ) ;
#156 = DIRECTION ( 'NONE',  ( 1.000000000000000000, 0.000000000000000000, 0.000000000000000000 ) ) ;
#157 = EDGE_CURVE ( 'NONE', #148, #223, #191, .T. ) ;
#158 = PRODUCT_DEFINITION_FORMATION_WITH_SPECIFIED_SOURCE ( 'LIBOVOLNÝ', '', #60, .NOT_KNOWN. ) ;
#159 = EDGE_LOOP ( 'NONE', ( #98, #244 ) ) ;
#160 = APPROVAL_DATE_TIME ( #203, #270 ) ;
#161 = VERTEX_POINT ( 'NONE', #100 ) ;
#162 = CARTESIAN_POINT ( 'NONE',  ( -2.000000000000000000, 0.000000000000000000, 2.000000000000000000 ) ) ;
#163 = APPROVAL_DATE_TIME ( #155, #135 ) ;
#164 = LINE ( 'NONE', #162, #145 ) ;
#165 = FACE_OUTER_BOUND ( 'NONE', #297, .T. ) ;
#166 = CARTESIAN_POINT ( 'NONE',  ( 0.000000000000000000, 0.000000000000000000, 2.200000000000007283 ) ) ;
#167 = CARTESIAN_POINT ( 'NONE',  ( 0.000000000000000000, 0.000000000000000000, 2.000000000000000000 ) ) ;
#168 = CIRCLE ( 'NONE', #260, 1.100000000000000089 ) ;
#169 = PERSON_AND_ORGANIZATION ( #94, #292 ) ;
#170 = EDGE_CURVE ( 'NONE', #71, #295, #123, .T. ) ;
#171 = FACE_OUTER_BOUND ( 'NONE', #226, .T. ) ;
#172 = CARTESIAN_POINT ( 'NONE',  ( 0.000000000000000000, 0.000000000000000000, 2.000000000000000000 ) ) ;
#173 = FACE_OUTER_BOUND ( 'NONE', #107, .T. ) ;
#174 = EDGE_CURVE ( 'NONE', #161, #148, #228, .T. ) ;
#175 = APPROVAL_PERSON_ORGANIZATION ( #250, #270, #303 ) ;
#176 = LOCAL_TIME ( 12, 19, 10.00000000000000000, #302 ) ;
#177 = PERSON_AND_ORGANIZATION ( #94, #292 ) ;
#178 = APPROVAL_STATUS ( 'not_yet_approved' ) ;
#179 = DIRECTION ( 'NONE',  ( 0.000000000000000000, 0.000000000000000000, 1.000000000000000000 ) ) ;
#180 = MECHANICAL_CONTEXT ( 'NONE', #83, 'mechanical' ) ;
#181 = CARTESIAN_POINT ( 'NONE',  ( 0.000000000000000000, 0.000000000000000000, 162.0000000000000000 ) ) ;
#182 = DATE_TIME_ROLE ( 'creation_date' ) ;
#183 = VERTEX_POINT ( 'NONE', #125 ) ;
#184 = DIRECTION ( 'NONE',  ( -1.000000000000000000, 0.000000000000000000, 0.000000000000000000 ) ) ;
#185 = CIRCLE ( 'NONE', #283, 2.000000000000000000 ) ;
#186 = DIRECTION ( 'NONE',  ( -1.000000000000000000, 0.000000000000000000, 0.000000000000000000 ) ) ;
#187 = ORIENTED_EDGE ( 'NONE', *, *, #78, .F. ) ;
#188 = DIRECTION ( 'NONE',  ( 0.000000000000000000, 0.000000000000000000, -1.000000000000000000 ) ) ;
#189 = EDGE_CURVE ( 'NONE', #45, #295, #11, .T. ) ;
#190 = APPROVAL_PERSON_ORGANIZATION ( #221, #306, #146 ) ;
#191 = LINE ( 'NONE', #129, #86 ) ;
#192 = AXIS2_PLACEMENT_3D ( 'NONE', #106, #243, #36 ) ;
#193 = LOCAL_TIME ( 12, 19, 10.00000000000000000, #18 ) ;
#194 = CARTESIAN_POINT ( 'NONE',  ( 0.000000000000000000, 0.000000000000000000, 2.000000000000000000 ) ) ;
#195 = DIRECTION ( 'NONE',  ( 0.000000000000000000, 0.000000000000000000, 1.000000000000000000 ) ) ;
#196 = ORIENTED_EDGE ( 'NONE', *, *, #174, .F. ) ;
#197 = CALENDAR_DATE ( 2022, 20, 6 ) ;
#198 = EDGE_LOOP ( 'NONE', ( #225, #196, #227, #3 ) ) ;
#199 = EDGE_CURVE ( 'NONE', #148, #161, #24, .T. ) ;
#200 = CARTESIAN_POINT ( 'NONE',  ( 0.000000000000000000, 0.000000000000000000, 0.000000000000000000 ) ) ;
#201 = APPLICATION_PROTOCOL_DEFINITION ( 'international standard', 'config_control_design', 1994, #27 ) ;
#202 = DIRECTION ( 'NONE',  ( -0.000000000000000000, -0.000000000000000000, -1.000000000000000000 ) ) ;
#203 = DATE_AND_TIME ( #197, #105 ) ;
#204 = CIRCLE ( 'NONE', #119, 1.300000000000000266 ) ;
#205 = DIRECTION ( 'NONE',  ( -0.000000000000000000, -0.000000000000000000, -1.000000000000000000 ) ) ;
#206 = ADVANCED_FACE ( 'NONE', ( #9 ), #149, .T. ) ;
#207 = ORIENTED_EDGE ( 'NONE', *, *, #229, .F. ) ;
#208 = EDGE_LOOP ( 'NONE', ( #118, #96 ) ) ;
#209 = ORIENTED_EDGE ( 'NONE', *, *, #170, .F. ) ;
#210 = ADVANCED_FACE ( 'NONE', ( #171 ), #224, .T. ) ;
#211 = DIRECTION ( 'NONE',  ( -0.000000000000000000, -0.000000000000000000, -1.000000000000000000 ) ) ;
#212 = EDGE_CURVE ( 'NONE', #45, #99, #122, .T. ) ;
#213 = ADVANCED_BREP_SHAPE_REPRESENTATION ( '8fc4', ( #21, #103 ), #272 ) ;
#214 = DIRECTION ( 'NONE',  ( 0.000000000000000000, 0.000000000000000000, 1.000000000000000000 ) ) ;
#215 = AXIS2_PLACEMENT_3D ( 'NONE', #95, #137, #284 ) ;
#216 = CC_DESIGN_APPROVAL ( #270, ( #38 ) ) ;
#217 = EDGE_CURVE ( 'NONE', #253, #45, #267, .T. ) ;
#218 = CARTESIAN_POINT ( 'NONE',  ( 0.000000000000000000, 0.000000000000000000, 0.000000000000000000 ) ) ;
#219 = ADVANCED_FACE ( 'NONE', ( #14 ), #247, .F. ) ;
#220 = AXIS2_PLACEMENT_3D ( 'NONE', #218, #13, #16 ) ;
#221 = PERSON_AND_ORGANIZATION ( #94, #292 ) ;
#222 = DIRECTION ( 'NONE',  ( 1.000000000000000000, 0.000000000000000000, 0.000000000000000000 ) ) ;
#223 = VERTEX_POINT ( 'NONE', #121 ) ;
#224 = PLANE ( 'NONE',  #305 ) ;
#225 = ORIENTED_EDGE ( 'NONE', *, *, #157, .F. ) ;
#226 = EDGE_LOOP ( 'NONE', ( #262, #268 ) ) ;
#227 = ORIENTED_EDGE ( 'NONE', *, *, #35, .T. ) ;
#228 = CIRCLE ( 'NONE', #235, 2.000000000000000000 ) ;
#229 = EDGE_CURVE ( 'NONE', #99, #45, #62, .T. ) ;
#230 = CIRCLE ( 'NONE', #299, 2.000000000000000000 ) ;
#231 = DIRECTION ( 'NONE',  ( 0.000000000000000000, 0.000000000000000000, 1.000000000000000000 ) ) ;
#232 = ORIENTED_EDGE ( 'NONE', *, *, #229, .T. ) ;
#233 = CALENDAR_DATE ( 2022, 20, 6 ) ;
#234 = CYLINDRICAL_SURFACE ( 'NONE', #111, 1.100000000000000089 ) ;
#235 = AXIS2_PLACEMENT_3D ( 'NONE', #194, #79, #32 ) ;
#236 = ADVANCED_FACE ( 'NONE', ( #173 ), #151, .F. ) ;
#237 = CARTESIAN_POINT ( 'NONE',  ( -2.000000000000000000, 0.000000000000000000, 0.000000000000000000 ) ) ;
#238 = CARTESIAN_POINT ( 'NONE',  ( 1.100000000000000089, 1.347111479062088503E-16, 162.0000000000000000 ) ) ;
#239 = PERSON_AND_ORGANIZATION ( #94, #292 ) ;
#240 = PRODUCT_DEFINITION_SHAPE ( 'NONE', 'NONE',  #38 ) ;
#241 = APPROVAL_DATE_TIME ( #293, #306 ) ;
#242 = CALENDAR_DATE ( 2022, 20, 6 ) ;
#243 = DIRECTION ( 'NONE',  ( 0.000000000000000000, 0.000000000000000000, 1.000000000000000000 ) ) ;
#244 = ORIENTED_EDGE ( 'NONE', *, *, #199, .T. ) ;
#245 = DIRECTION ( 'NONE',  ( 0.000000000000000000, 0.000000000000000000, 1.000000000000000000 ) ) ;
#246 = AXIS2_PLACEMENT_3D ( 'NONE', #264, #195, #265 ) ;
#247 = TOROIDAL_SURFACE ( 'NONE', #41, 1.300000000000000266, 0.2000000000000000111 ) ;
#248 = CARTESIAN_POINT ( 'NONE',  ( -1.100000000000000089, 0.000000000000000000, 162.0000000000000000 ) ) ;
#249 = ORIENTED_EDGE ( 'NONE', *, *, #189, .F. ) ;
#250 = PERSON_AND_ORGANIZATION ( #94, #292 ) ;
#251 = CLOSED_SHELL ( 'NONE', ( #236, #64, #7, #206, #104, #90, #44, #210, #219 ) ) ;
#252 = VECTOR ( 'NONE', #73, 1000.000000000000000 ) ;
#253 = VERTEX_POINT ( 'NONE', #61 ) ;
#254 = APPROVAL_ROLE ( '' ) ;
#255 = EDGE_CURVE ( 'NONE', #183, #99, #144, .T. ) ;
#256 = CARTESIAN_POINT ( 'NONE',  ( 0.000000000000000000, 0.000000000000000000, 2.000000000000000000 ) ) ;
#257 = APPROVAL_STATUS ( 'not_yet_approved' ) ;
#258 = ORIENTED_EDGE ( 'NONE', *, *, #35, .F. ) ;
#259 = AXIS2_PLACEMENT_3D ( 'NONE', #172, #245, #269 ) ;
#260 = AXIS2_PLACEMENT_3D ( 'NONE', #282, #231, #26 ) ;
#261 = CARTESIAN_POINT ( 'NONE',  ( -1.300000000000000266, 1.592040838891559342E-16, 2.000000000000003553 ) ) ;
#262 = ORIENTED_EDGE ( 'NONE', *, *, #56, .T. ) ;
#263 = EDGE_CURVE ( 'NONE', #134, #223, #230, .T. ) ;
#264 = CARTESIAN_POINT ( 'NONE',  ( 0.000000000000000000, 0.000000000000000000, 2.200000000000007283 ) ) ;
#265 = DIRECTION ( 'NONE',  ( 1.000000000000000000, 0.000000000000000000, 0.000000000000000000 ) ) ;
#266 = COORDINATED_UNIVERSAL_TIME_OFFSET ( 1, 0, .AHEAD. ) ;
#267 = LINE ( 'NONE', #238, #252 ) ;
#268 = ORIENTED_EDGE ( 'NONE', *, *, #81, .T. ) ;
#269 = DIRECTION ( 'NONE',  ( 1.000000000000000000, 0.000000000000000000, 0.000000000000000000 ) ) ;
#270 = APPROVAL ( #257, 'NEURÈENÝ' ) ;
#271 = ORIENTED_EDGE ( 'NONE', *, *, #81, .F. ) ;
#272 =( GEOMETRIC_REPRESENTATION_CONTEXT ( 3 ) GLOBAL_UNCERTAINTY_ASSIGNED_CONTEXT ( ( #274 ) ) GLOBAL_UNIT_ASSIGNED_CONTEXT ( ( #136, #300, #46 ) ) REPRESENTATION_CONTEXT ( 'NONE', 'WORKASPACE' ) );
#273 = DIRECTION ( 'NONE',  ( 1.000000000000000000, 0.000000000000000000, 0.000000000000000000 ) ) ;
#274 = UNCERTAINTY_MEASURE_WITH_UNIT (LENGTH_MEASURE( 1.000000000000000082E-05 ), #136, 'distance_accuracy_value', 'NONE');
#275 = CALENDAR_DATE ( 2022, 20, 6 ) ;
#276 = DESIGN_CONTEXT ( 'detailed design', #27, 'design' ) ;
#277 = CC_DESIGN_SECURITY_CLASSIFICATION ( #75, ( #158 ) ) ;
#278 = CARTESIAN_POINT ( 'NONE',  ( 1.300000000000000266, 0.000000000000000000, 2.000000000000003553 ) ) ;
#279 = DIRECTION ( 'NONE',  ( 0.000000000000000000, 0.000000000000000000, 1.000000000000000000 ) ) ;
#280 = CARTESIAN_POINT ( 'NONE',  ( 0.000000000000000000, 0.000000000000000000, 0.000000000000000000 ) ) ;
#281 = ORIENTED_EDGE ( 'NONE', *, *, #56, .F. ) ;
#282 = CARTESIAN_POINT ( 'NONE',  ( 0.000000000000000000, 0.000000000000000000, 162.0000000000000000 ) ) ;
#283 = AXIS2_PLACEMENT_3D ( 'NONE', #133, #51, #52 ) ;
#284 = DIRECTION ( 'NONE',  ( -1.000000000000000000, 1.224646799147353207E-16, 0.000000000000000000 ) ) ;
#285 = CARTESIAN_POINT ( 'NONE',  ( 0.000000000000000000, 0.000000000000000000, 2.000000000000000000 ) ) ;
#286 = DIRECTION ( 'NONE',  ( 0.000000000000000000, 0.000000000000000000, 1.000000000000000000 ) ) ;
#287 = AXIS2_PLACEMENT_3D ( 'NONE', #82, #128, #188 ) ;
#288 = CIRCLE ( 'NONE', #215, 0.2000000000000000944 ) ;
#289 = DIRECTION ( 'NONE',  ( 1.000000000000000000, 0.000000000000000000, -0.000000000000000000 ) ) ;
#290 = PRODUCT_RELATED_PRODUCT_CATEGORY ( 'detail', '', ( #60 ) ) ;
#291 = APPROVAL_STATUS ( 'not_yet_approved' ) ;
#292 = ORGANIZATION ( 'NEURÈENÝ', 'NEURÈENÝ', '' ) ;
#293 = DATE_AND_TIME ( #242, #89 ) ;
#294 = DIRECTION ( 'NONE',  ( 1.000000000000000000, 0.000000000000000000, 0.000000000000000000 ) ) ;
#295 = VERTEX_POINT ( 'NONE', #278 ) ;
#296 = CALENDAR_DATE ( 2022, 20, 6 ) ;
#297 = EDGE_LOOP ( 'NONE', ( #85, #17 ) ) ;
#298 = EDGE_CURVE ( 'NONE', #295, #71, #204, .T. ) ;
#299 = AXIS2_PLACEMENT_3D ( 'NONE', #200, #63, #273 ) ;
#300 =( NAMED_UNIT ( * ) PLANE_ANGLE_UNIT ( ) SI_UNIT ( $, .RADIAN. ) );
#301 = CC_DESIGN_PERSON_AND_ORGANIZATION_ASSIGNMENT ( #72, #76, ( #158 ) ) ;
#302 = COORDINATED_UNIVERSAL_TIME_OFFSET ( 1, 0, .AHEAD. ) ;
#303 = APPROVAL_ROLE ( '' ) ;
#304 = CARTESIAN_POINT ( 'NONE',  ( 0.000000000000000000, 0.000000000000000000, 162.0000000000000000 ) ) ;
#305 = AXIS2_PLACEMENT_3D ( 'NONE', #40, #152, #289 ) ;
#306 = APPROVAL ( #291, 'NEURÈENÝ' ) ;
#307 = PERSON_AND_ORGANIZATION_ROLE ( 'creator' ) ;
ENDSEC;
END-ISO-10303-21;
