ISO-10303-21;
HEADER;
FILE_DESCRIPTION (( 'STEP AP203' ),
    '1' );
FILE_NAME ('bf13.STEP',
    '2022-06-20T09:17:27',
    ( '' ),
    ( '' ),
    'SwSTEP 2.0',
    'SolidWorks 2019',
    '' );
FILE_SCHEMA (( 'CONFIG_CONTROL_DESIGN' ));
ENDSEC;

DATA;
#1 = DIRECTION ( 'NONE',  ( -0.000000000000000000, -0.000000000000000000, -1.000000000000000000 ) ) ;
#2 = CARTESIAN_POINT ( 'NONE',  ( 0.000000000000000000, 0.000000000000000000, 810.0000000000000000 ) ) ;
#3 = CARTESIAN_POINT ( 'NONE',  ( 12.50000000000000000, 1.530808498934191521E-15, 810.0000000000000000 ) ) ;
#4 = PLANE ( 'NONE',  #116 ) ;
#5 = DIRECTION ( 'NONE',  ( -1.000000000000000000, 0.000000000000000000, 0.000000000000000000 ) ) ;
#6 = DIRECTION ( 'NONE',  ( -1.000000000000000000, 0.000000000000000000, 0.000000000000000000 ) ) ;
#7 = EDGE_CURVE ( 'NONE', #50, #165, #195, .T. ) ;
#8 = CARTESIAN_POINT ( 'NONE',  ( -16.00000000000000000, 0.000000000000000000, 10.00000000000000000 ) ) ;
#9 = DIRECTION ( 'NONE',  ( 0.000000000000000000, 0.000000000000000000, 1.000000000000000000 ) ) ;
#10 = APPROVAL_STATUS ( 'not_yet_approved' ) ;
#11 = EDGE_CURVE ( 'NONE', #214, #163, #240, .T. ) ;
#12 = FACE_OUTER_BOUND ( 'NONE', #304, .T. ) ;
#13 = DATE_AND_TIME ( #226, #70 ) ;
#14 = CARTESIAN_POINT ( 'NONE',  ( -16.00000000000000000, 0.000000000000000000, 0.000000000000000000 ) ) ;
#15 = PERSON_AND_ORGANIZATION ( #170, #152 ) ;
#16 = ORIENTED_EDGE ( 'NONE', *, *, #168, .F. ) ;
#17 = MANIFOLD_SOLID_BREP ( 'Zaoblit1', #125 ) ;
#18 = PERSON_AND_ORGANIZATION ( #170, #152 ) ;
#19 = CIRCLE ( 'NONE', #217, 12.50000000000000000 ) ;
#20 = APPROVAL ( #42, 'NEURÈENÝ' ) ;
#21 = ORIENTED_EDGE ( 'NONE', *, *, #168, .T. ) ;
#22 = DIRECTION ( 'NONE',  ( -0.000000000000000000, -0.000000000000000000, -1.000000000000000000 ) ) ;
#23 = AXIS2_PLACEMENT_3D ( 'NONE', #100, #119, #71 ) ;
#24 = ORIENTED_EDGE ( 'NONE', *, *, #251, .F. ) ;
#25 = APPROVAL ( #10, 'NEURÈENÝ' ) ;
#26 = DIRECTION ( 'NONE',  ( 1.000000000000000000, 0.000000000000000000, 0.000000000000000000 ) ) ;
#27 = CIRCLE ( 'NONE', #53, 12.70000000000000107 ) ;
#28 = ORIENTED_EDGE ( 'NONE', *, *, #117, .T. ) ;
#29 = ADVANCED_FACE ( 'NONE', ( #262 ), #285, .T. ) ;
#30 = CARTESIAN_POINT ( 'NONE',  ( 0.000000000000000000, 0.000000000000000000, 810.0000000000000000 ) ) ;
#31 =( NAMED_UNIT ( * ) SI_UNIT ( $, .STERADIAN. ) SOLID_ANGLE_UNIT ( ) );
#32 = PERSON_AND_ORGANIZATION_ROLE ( 'classification_officer' ) ;
#33 = AXIS2_PLACEMENT_3D ( 'NONE', #78, #247, #198 ) ;
#34 = CARTESIAN_POINT ( 'NONE',  ( 0.000000000000000000, 0.000000000000000000, 10.00000000000000000 ) ) ;
#35 = CARTESIAN_POINT ( 'NONE',  ( 0.000000000000000000, 0.000000000000000000, 10.00000000000000000 ) ) ;
#36 = PERSON_AND_ORGANIZATION_ROLE ( 'design_supplier' ) ;
#37 =( NAMED_UNIT ( * ) PLANE_ANGLE_UNIT ( ) SI_UNIT ( $, .RADIAN. ) );
#38 = PERSON_AND_ORGANIZATION ( #170, #152 ) ;
#39 = AXIS2_PLACEMENT_3D ( 'NONE', #272, #9, #223 ) ;
#40 = CALENDAR_DATE ( 2022, 20, 6 ) ;
#41 = EDGE_CURVE ( 'NONE', #214, #213, #104, .T. ) ;
#42 = APPROVAL_STATUS ( 'not_yet_approved' ) ;
#43 = VERTEX_POINT ( 'NONE', #3 ) ;
#44 = EDGE_LOOP ( 'NONE', ( #306, #88 ) ) ;
#45 = AXIS2_PLACEMENT_3D ( 'NONE', #221, #77, #201 ) ;
#46 = ORIENTED_EDGE ( 'NONE', *, *, #7, .T. ) ;
#47 = PRODUCT_RELATED_PRODUCT_CATEGORY ( 'detail', '', ( #162 ) ) ;
#48 = VERTEX_POINT ( 'NONE', #75 ) ;
#49 = CYLINDRICAL_SURFACE ( 'NONE', #23, 12.50000000000000000 ) ;
#50 = VERTEX_POINT ( 'NONE', #268 ) ;
#51 = CARTESIAN_POINT ( 'NONE',  ( 12.70000000000000107, 0.000000000000000000, 9.999999999999992895 ) ) ;
#52 = CARTESIAN_POINT ( 'NONE',  ( 0.000000000000000000, 0.000000000000000000, 810.0000000000000000 ) ) ;
#53 = AXIS2_PLACEMENT_3D ( 'NONE', #95, #174, #219 ) ;
#54 = ADVANCED_FACE ( 'NONE', ( #166 ), #49, .T. ) ;
#55 = CARTESIAN_POINT ( 'NONE',  ( 0.000000000000000000, 0.000000000000000000, 10.19999999999998685 ) ) ;
#56 = FACE_OUTER_BOUND ( 'NONE', #211, .T. ) ;
#57 = DIRECTION ( 'NONE',  ( -0.000000000000000000, -0.000000000000000000, -1.000000000000000000 ) ) ;
#58 = AXIS2_PLACEMENT_3D ( 'NONE', #79, #275, #244 ) ;
#59 = CYLINDRICAL_SURFACE ( 'NONE', #287, 16.00000000000000000 ) ;
#60 = CALENDAR_DATE ( 2022, 20, 6 ) ;
#61 = DIRECTION ( 'NONE',  ( 0.000000000000000000, 0.000000000000000000, 1.000000000000000000 ) ) ;
#62 = EDGE_CURVE ( 'NONE', #213, #90, #27, .T. ) ;
#63 = AXIS2_PLACEMENT_3D ( 'NONE', #30, #177, #249 ) ;
#64 = DIRECTION ( 'NONE',  ( 1.000000000000000000, 0.000000000000000000, 0.000000000000000000 ) ) ;
#65 = ORIENTED_EDGE ( 'NONE', *, *, #149, .F. ) ;
#66 = COORDINATED_UNIVERSAL_TIME_OFFSET ( 1, 0, .AHEAD. ) ;
#67 = EDGE_CURVE ( 'NONE', #163, #90, #190, .T. ) ;
#68 = EDGE_LOOP ( 'NONE', ( #21, #143 ) ) ;
#69 = DIRECTION ( 'NONE',  ( 1.224646799147353207E-16, 1.000000000000000000, -0.000000000000000000 ) ) ;
#70 = LOCAL_TIME ( 11, 17, 27.00000000000000000, #301 ) ;
#71 = DIRECTION ( 'NONE',  ( -1.000000000000000000, 0.000000000000000000, 0.000000000000000000 ) ) ;
#72 = EDGE_LOOP ( 'NONE', ( #137, #139 ) ) ;
#73 = CARTESIAN_POINT ( 'NONE',  ( 12.50000000000000000, 1.530808498934191521E-15, 810.0000000000000000 ) ) ;
#74 = ADVANCED_FACE ( 'NONE', ( #148 ), #142, .F. ) ;
#75 = CARTESIAN_POINT ( 'NONE',  ( -12.50000000000000000, 0.000000000000000000, 810.0000000000000000 ) ) ;
#76 = CIRCLE ( 'NONE', #167, 12.70000000000000107 ) ;
#77 = DIRECTION ( 'NONE',  ( 0.000000000000000000, 0.000000000000000000, 1.000000000000000000 ) ) ;
#78 = CARTESIAN_POINT ( 'NONE',  ( 0.000000000000000000, 0.000000000000000000, 10.00000000000000000 ) ) ;
#79 = CARTESIAN_POINT ( 'NONE',  ( 0.000000000000000000, 0.000000000000000000, 10.19999999999998685 ) ) ;
#80 = APPROVAL_DATE_TIME ( #229, #25 ) ;
#81 = LOCAL_TIME ( 11, 17, 27.00000000000000000, #87 ) ;
#82 = DIRECTION ( 'NONE',  ( -1.000000000000000000, 0.000000000000000000, 0.000000000000000000 ) ) ;
#83 = DIRECTION ( 'NONE',  ( 0.000000000000000000, 0.000000000000000000, 1.000000000000000000 ) ) ;
#84 = APPROVAL_DATE_TIME ( #183, #20 ) ;
#85 = ORIENTED_EDGE ( 'NONE', *, *, #62, .F. ) ;
#86 = AXIS2_PLACEMENT_3D ( 'NONE', #172, #265, #264 ) ;
#87 = COORDINATED_UNIVERSAL_TIME_OFFSET ( 1, 0, .AHEAD. ) ;
#88 = ORIENTED_EDGE ( 'NONE', *, *, #266, .F. ) ;
#89 = ORIENTED_EDGE ( 'NONE', *, *, #266, .T. ) ;
#90 = VERTEX_POINT ( 'NONE', #51 ) ;
#91 = CIRCLE ( 'NONE', #122, 12.50000000000000000 ) ;
#92 = ORIENTED_EDGE ( 'NONE', *, *, #67, .F. ) ;
#93 = AXIS2_PLACEMENT_3D ( 'NONE', #169, #69, #147 ) ;
#94 = APPROVAL ( #204, 'NEURÈENÝ' ) ;
#95 = CARTESIAN_POINT ( 'NONE',  ( 0.000000000000000000, 0.000000000000000000, 10.00000000000000000 ) ) ;
#96 = CIRCLE ( 'NONE', #45, 16.00000000000000000 ) ;
#97 = DIRECTION ( 'NONE',  ( 0.000000000000000000, 0.000000000000000000, 1.000000000000000000 ) ) ;
#98 = EDGE_CURVE ( 'NONE', #43, #48, #19, .T. ) ;
#99 = DIRECTION ( 'NONE',  ( 1.000000000000000000, 0.000000000000000000, 0.000000000000000000 ) ) ;
#100 = CARTESIAN_POINT ( 'NONE',  ( 0.000000000000000000, 0.000000000000000000, 810.0000000000000000 ) ) ;
#101 = UNCERTAINTY_MEASURE_WITH_UNIT (LENGTH_MEASURE( 1.000000000000000082E-05 ), #277, 'distance_accuracy_value', 'NONE');
#102 = DIRECTION ( 'NONE',  ( -0.000000000000000000, -0.000000000000000000, -1.000000000000000000 ) ) ;
#103 =( GEOMETRIC_REPRESENTATION_CONTEXT ( 3 ) GLOBAL_UNCERTAINTY_ASSIGNED_CONTEXT ( ( #101 ) ) GLOBAL_UNIT_ASSIGNED_CONTEXT ( ( #277, #37, #31 ) ) REPRESENTATION_CONTEXT ( 'NONE', 'WORKASPACE' ) );
#104 = CIRCLE ( 'NONE', #93, 0.2000000000000005107 ) ;
#105 = CARTESIAN_POINT ( 'NONE',  ( 0.000000000000000000, 0.000000000000000000, 0.000000000000000000 ) ) ;
#106 = PERSON_AND_ORGANIZATION ( #170, #152 ) ;
#107 = CARTESIAN_POINT ( 'NONE',  ( 0.000000000000000000, 0.000000000000000000, 0.000000000000000000 ) ) ;
#108 = SECURITY_CLASSIFICATION_LEVEL ( 'unclassified' ) ;
#109 = CC_DESIGN_SECURITY_CLASSIFICATION ( #113, ( #303 ) ) ;
#110 = CARTESIAN_POINT ( 'NONE',  ( 0.000000000000000000, 0.000000000000000000, 10.19999999999998685 ) ) ;
#111 = APPLICATION_PROTOCOL_DEFINITION ( 'international standard', 'config_control_design', 1994, #237 ) ;
#112 = ORIENTED_EDGE ( 'NONE', *, *, #117, .F. ) ;
#113 = SECURITY_CLASSIFICATION ( '', '', #108 ) ;
#114 = CALENDAR_DATE ( 2022, 20, 6 ) ;
#115 = EDGE_LOOP ( 'NONE', ( #305, #189, #112, #92 ) ) ;
#116 = AXIS2_PLACEMENT_3D ( 'NONE', #191, #243, #216 ) ;
#117 = EDGE_CURVE ( 'NONE', #90, #213, #76, .T. ) ;
#118 = DIRECTION ( 'NONE',  ( -0.000000000000000000, -0.000000000000000000, -1.000000000000000000 ) ) ;
#119 = DIRECTION ( 'NONE',  ( -0.000000000000000000, -0.000000000000000000, -1.000000000000000000 ) ) ;
#120 = FACE_OUTER_BOUND ( 'NONE', #72, .T. ) ;
#121 = EDGE_CURVE ( 'NONE', #48, #214, #218, .T. ) ;
#122 = AXIS2_PLACEMENT_3D ( 'NONE', #110, #83, #276 ) ;
#123 = DIRECTION ( 'NONE',  ( 1.000000000000000000, 0.000000000000000000, 0.000000000000000000 ) ) ;
#124 = EDGE_LOOP ( 'NONE', ( #65, #307, #259, #208 ) ) ;
#125 = CLOSED_SHELL ( 'NONE', ( #74, #54, #199, #196, #261, #209, #29, #145, #222 ) ) ;
#126 = FACE_OUTER_BOUND ( 'NONE', #68, .T. ) ;
#127 = FACE_OUTER_BOUND ( 'NONE', #44, .T. ) ;
#128 = LOCAL_TIME ( 11, 17, 27.00000000000000000, #66 ) ;
#129 = COORDINATED_UNIVERSAL_TIME_OFFSET ( 1, 0, .AHEAD. ) ;
#130 = DIRECTION ( 'NONE',  ( 1.000000000000000000, 0.000000000000000000, -0.000000000000000000 ) ) ;
#131 = DIRECTION ( 'NONE',  ( 1.000000000000000000, 0.000000000000000000, -0.000000000000000000 ) ) ;
#132 = PLANE ( 'NONE',  #186 ) ;
#133 = VECTOR ( 'NONE', #102, 1000.000000000000000 ) ;
#134 = DIRECTION ( 'NONE',  ( 0.000000000000000000, 0.000000000000000000, 1.000000000000000000 ) ) ;
#135 = DATE_AND_TIME ( #60, #274 ) ;
#136 = PERSON_AND_ORGANIZATION_ROLE ( 'creator' ) ;
#137 = ORIENTED_EDGE ( 'NONE', *, *, #288, .T. ) ;
#138 = APPROVAL_ROLE ( '' ) ;
#139 = ORIENTED_EDGE ( 'NONE', *, *, #98, .T. ) ;
#140 = CC_DESIGN_APPROVAL ( #20, ( #256 ) ) ;
#141 = ORIENTED_EDGE ( 'NONE', *, *, #62, .T. ) ;
#142 = TOROIDAL_SURFACE ( 'NONE', #280, 12.70000000000000107, 0.2000000000000000111 ) ;
#143 = ORIENTED_EDGE ( 'NONE', *, *, #175, .T. ) ;
#144 = CARTESIAN_POINT ( 'NONE',  ( 0.000000000000000000, 0.000000000000000000, 10.00000000000000000 ) ) ;
#145 = ADVANCED_FACE ( 'NONE', ( #120 ), #4, .T. ) ;
#146 = DIRECTION ( 'NONE',  ( -0.000000000000000000, -0.000000000000000000, -1.000000000000000000 ) ) ;
#147 = DIRECTION ( 'NONE',  ( -1.000000000000000000, 1.224646799147353207E-16, 0.000000000000000000 ) ) ;
#148 = FACE_OUTER_BOUND ( 'NONE', #115, .T. ) ;
#149 = EDGE_CURVE ( 'NONE', #43, #163, #290, .T. ) ;
#150 = DIRECTION ( 'NONE',  ( -0.000000000000000000, -0.000000000000000000, -1.000000000000000000 ) ) ;
#151 = PLANE ( 'NONE',  #181 ) ;
#152 = ORGANIZATION ( 'NEURÈENÝ', 'NEURÈENÝ', '' ) ;
#153 = CARTESIAN_POINT ( 'NONE',  ( 12.50000000000000000, 1.530808498934191521E-15, 10.19999999999998685 ) ) ;
#154 = CC_DESIGN_DATE_AND_TIME_ASSIGNMENT ( #135, #273, ( #113 ) ) ;
#155 = DIRECTION ( 'NONE',  ( 0.000000000000000000, 0.000000000000000000, 1.000000000000000000 ) ) ;
#156 = APPROVAL_ROLE ( '' ) ;
#157 = APPROVAL_DATE_TIME ( #13, #94 ) ;
#158 = VECTOR ( 'NONE', #22, 1000.000000000000000 ) ;
#159 = CARTESIAN_POINT ( 'NONE',  ( 0.000000000000000000, 0.000000000000000000, 0.000000000000000000 ) ) ;
#160 = ORIENTED_EDGE ( 'NONE', *, *, #67, .T. ) ;
#161 = CALENDAR_DATE ( 2022, 20, 6 ) ;
#162 = PRODUCT ( 'bf13', 'bf13', '', ( #232 ) ) ;
#163 = VERTEX_POINT ( 'NONE', #153 ) ;
#164 = CC_DESIGN_DATE_AND_TIME_ASSIGNMENT ( #252, #278, ( #256 ) ) ;
#165 = VERTEX_POINT ( 'NONE', #299 ) ;
#166 = FACE_OUTER_BOUND ( 'NONE', #210, .T. ) ;
#167 = AXIS2_PLACEMENT_3D ( 'NONE', #144, #146, #123 ) ;
#168 = EDGE_CURVE ( 'NONE', #291, #50, #292, .T. ) ;
#169 = CARTESIAN_POINT ( 'NONE',  ( -12.70000000000000107, 1.555301434917138630E-15, 10.19999999999998685 ) ) ;
#170 = PERSON ( 'NEURÈENÝ', 'NEURÈENÝ', 'NEURÈENÝ', ('NEURÈENÝ'), ('NEURÈENÝ'), ('NEURÈENÝ') ) ;
#171 = ORIENTED_EDGE ( 'NONE', *, *, #149, .T. ) ;
#172 = CARTESIAN_POINT ( 'NONE',  ( 12.70000000000000107, 0.000000000000000000, 10.19999999999998685 ) ) ;
#173 = CIRCLE ( 'NONE', #39, 16.00000000000000000 ) ;
#174 = DIRECTION ( 'NONE',  ( -0.000000000000000000, -0.000000000000000000, -1.000000000000000000 ) ) ;
#175 = EDGE_CURVE ( 'NONE', #50, #291, #173, .T. ) ;
#176 = CYLINDRICAL_SURFACE ( 'NONE', #197, 16.00000000000000000 ) ;
#177 = DIRECTION ( 'NONE',  ( 0.000000000000000000, 0.000000000000000000, 1.000000000000000000 ) ) ;
#178 = APPROVAL_PERSON_ORGANIZATION ( #106, #25, #281 ) ;
#179 = DIRECTION ( 'NONE',  ( 1.000000000000000000, 0.000000000000000000, 0.000000000000000000 ) ) ;
#180 = PERSON_AND_ORGANIZATION ( #170, #152 ) ;
#181 = AXIS2_PLACEMENT_3D ( 'NONE', #107, #61, #131 ) ;
#182 = CC_DESIGN_PERSON_AND_ORGANIZATION_ASSIGNMENT ( #298, #32, ( #113 ) ) ;
#183 = DATE_AND_TIME ( #114, #81 ) ;
#184 = EDGE_LOOP ( 'NONE', ( #28, #141 ) ) ;
#185 = ORIENTED_EDGE ( 'NONE', *, *, #238, .F. ) ;
#186 = AXIS2_PLACEMENT_3D ( 'NONE', #34, #270, #130 ) ;
#187 = ORIENTED_EDGE ( 'NONE', *, *, #251, .T. ) ;
#188 = PRODUCT_DEFINITION_SHAPE ( 'NONE', 'NONE',  #256 ) ;
#189 = ORIENTED_EDGE ( 'NONE', *, *, #41, .T. ) ;
#190 = CIRCLE ( 'NONE', #86, 0.2000000000000005107 ) ;
#191 = CARTESIAN_POINT ( 'NONE',  ( 0.000000000000000000, 0.000000000000000000, 810.0000000000000000 ) ) ;
#192 = APPLICATION_CONTEXT ( 'configuration controlled 3d designs of mechanical parts and assemblies' ) ;
#193 = CARTESIAN_POINT ( 'NONE',  ( 16.00000000000000000, 1.959434878635765131E-15, 10.00000000000000000 ) ) ;
#194 = DESIGN_CONTEXT ( 'detailed design', #192, 'design' ) ;
#195 = LINE ( 'NONE', #193, #300 ) ;
#196 = ADVANCED_FACE ( 'NONE', ( #56 ), #59, .T. ) ;
#197 = AXIS2_PLACEMENT_3D ( 'NONE', #227, #150, #6 ) ;
#198 = DIRECTION ( 'NONE',  ( 1.000000000000000000, 0.000000000000000000, 0.000000000000000000 ) ) ;
#199 = ADVANCED_FACE ( 'NONE', ( #250 ), #176, .T. ) ;
#200 = FACE_BOUND ( 'NONE', #184, .T. ) ;
#201 = DIRECTION ( 'NONE',  ( 1.000000000000000000, 0.000000000000000000, 0.000000000000000000 ) ) ;
#202 = CIRCLE ( 'NONE', #63, 12.50000000000000000 ) ;
#203 = CARTESIAN_POINT ( 'NONE',  ( -12.50000000000000000, 0.000000000000000000, 10.19999999999998685 ) ) ;
#204 = APPROVAL_STATUS ( 'not_yet_approved' ) ;
#205 = CC_DESIGN_PERSON_AND_ORGANIZATION_ASSIGNMENT ( #180, #230, ( #162 ) ) ;
#206 = APPROVAL_PERSON_ORGANIZATION ( #207, #94, #156 ) ;
#207 = PERSON_AND_ORGANIZATION ( #170, #152 ) ;
#208 = ORIENTED_EDGE ( 'NONE', *, *, #11, .T. ) ;
#209 = ADVANCED_FACE ( 'NONE', ( #127 ), #151, .F. ) ;
#210 = EDGE_LOOP ( 'NONE', ( #302, #171, #286, #234 ) ) ;
#211 = EDGE_LOOP ( 'NONE', ( #257, #16, #187, #254 ) ) ;
#212 = VECTOR ( 'NONE', #295, 1000.000000000000000 ) ;
#213 = VERTEX_POINT ( 'NONE', #225 ) ;
#214 = VERTEX_POINT ( 'NONE', #203 ) ;
#215 = CC_DESIGN_PERSON_AND_ORGANIZATION_ASSIGNMENT ( #15, #36, ( #303 ) ) ;
#216 = DIRECTION ( 'NONE',  ( 1.000000000000000000, 0.000000000000000000, -0.000000000000000000 ) ) ;
#217 = AXIS2_PLACEMENT_3D ( 'NONE', #2, #242, #26 ) ;
#218 = LINE ( 'NONE', #241, #158 ) ;
#219 = DIRECTION ( 'NONE',  ( 1.000000000000000000, 0.000000000000000000, 0.000000000000000000 ) ) ;
#220 = CIRCLE ( 'NONE', #235, 16.00000000000000000 ) ;
#221 = CARTESIAN_POINT ( 'NONE',  ( 0.000000000000000000, 0.000000000000000000, 0.000000000000000000 ) ) ;
#222 = ADVANCED_FACE ( 'NONE', ( #12 ), #228, .F. ) ;
#223 = DIRECTION ( 'NONE',  ( 1.000000000000000000, 0.000000000000000000, 0.000000000000000000 ) ) ;
#224 = PERSON_AND_ORGANIZATION_ROLE ( 'creator' ) ;
#225 = CARTESIAN_POINT ( 'NONE',  ( -12.70000000000000107, 1.555301434917138630E-15, 9.999999999999992895 ) ) ;
#226 = CALENDAR_DATE ( 2022, 20, 6 ) ;
#227 = CARTESIAN_POINT ( 'NONE',  ( 0.000000000000000000, 0.000000000000000000, 10.00000000000000000 ) ) ;
#228 = TOROIDAL_SURFACE ( 'NONE', #58, 12.70000000000000107, 0.2000000000000000111 ) ;
#229 = DATE_AND_TIME ( #40, #258 ) ;
#230 = PERSON_AND_ORGANIZATION_ROLE ( 'design_owner' ) ;
#231 = AXIS2_PLACEMENT_3D ( 'NONE', #289, #97, #267 ) ;
#232 = MECHANICAL_CONTEXT ( 'NONE', #237, 'mechanical' ) ;
#233 = VERTEX_POINT ( 'NONE', #14 ) ;
#234 = ORIENTED_EDGE ( 'NONE', *, *, #121, .F. ) ;
#235 = AXIS2_PLACEMENT_3D ( 'NONE', #105, #155, #179 ) ;
#236 = ORIENTED_EDGE ( 'NONE', *, *, #41, .F. ) ;
#237 = APPLICATION_CONTEXT ( 'configuration controlled 3d designs of mechanical parts and assemblies' ) ;
#238 = EDGE_CURVE ( 'NONE', #163, #214, #91, .T. ) ;
#239 = DIRECTION ( 'NONE',  ( 0.000000000000000000, 0.000000000000000000, 1.000000000000000000 ) ) ;
#240 = CIRCLE ( 'NONE', #231, 12.50000000000000000 ) ;
#241 = CARTESIAN_POINT ( 'NONE',  ( -12.50000000000000000, 0.000000000000000000, 810.0000000000000000 ) ) ;
#242 = DIRECTION ( 'NONE',  ( 0.000000000000000000, 0.000000000000000000, 1.000000000000000000 ) ) ;
#243 = DIRECTION ( 'NONE',  ( 0.000000000000000000, 0.000000000000000000, 1.000000000000000000 ) ) ;
#244 = DIRECTION ( 'NONE',  ( 1.000000000000000000, 0.000000000000000000, 0.000000000000000000 ) ) ;
#245 = LINE ( 'NONE', #294, #133 ) ;
#246 = CC_DESIGN_APPROVAL ( #94, ( #303 ) ) ;
#247 = DIRECTION ( 'NONE',  ( 0.000000000000000000, 0.000000000000000000, 1.000000000000000000 ) ) ;
#248 = COORDINATED_UNIVERSAL_TIME_OFFSET ( 1, 0, .AHEAD. ) ;
#249 = DIRECTION ( 'NONE',  ( 1.000000000000000000, 0.000000000000000000, 0.000000000000000000 ) ) ;
#250 = FACE_OUTER_BOUND ( 'NONE', #260, .T. ) ;
#251 = EDGE_CURVE ( 'NONE', #291, #233, #245, .T. ) ;
#252 = DATE_AND_TIME ( #161, #128 ) ;
#253 = SHAPE_DEFINITION_REPRESENTATION ( #188, #284 ) ;
#254 = ORIENTED_EDGE ( 'NONE', *, *, #293, .T. ) ;
#255 = APPLICATION_PROTOCOL_DEFINITION ( 'international standard', 'config_control_design', 1994, #192 ) ;
#256 = PRODUCT_DEFINITION ( 'NEZNÁMÝ', '', #303, #194 ) ;
#257 = ORIENTED_EDGE ( 'NONE', *, *, #7, .F. ) ;
#258 = LOCAL_TIME ( 11, 17, 27.00000000000000000, #248 ) ;
#259 = ORIENTED_EDGE ( 'NONE', *, *, #121, .T. ) ;
#260 = EDGE_LOOP ( 'NONE', ( #283, #46, #89, #24 ) ) ;
#261 = ADVANCED_FACE ( 'NONE', ( #200, #126 ), #132, .T. ) ;
#262 = FACE_OUTER_BOUND ( 'NONE', #124, .T. ) ;
#263 = APPROVAL_PERSON_ORGANIZATION ( #18, #20, #138 ) ;
#264 = DIRECTION ( 'NONE',  ( 0.000000000000000000, 0.000000000000000000, -1.000000000000000000 ) ) ;
#265 = DIRECTION ( 'NONE',  ( 0.000000000000000000, -1.000000000000000000, 0.000000000000000000 ) ) ;
#266 = EDGE_CURVE ( 'NONE', #165, #233, #220, .T. ) ;
#267 = DIRECTION ( 'NONE',  ( 1.000000000000000000, 0.000000000000000000, 0.000000000000000000 ) ) ;
#268 = CARTESIAN_POINT ( 'NONE',  ( 16.00000000000000000, 1.959434878635765131E-15, 10.00000000000000000 ) ) ;
#269 = AXIS2_PLACEMENT_3D ( 'NONE', #52, #118, #5 ) ;
#270 = DIRECTION ( 'NONE',  ( 0.000000000000000000, 0.000000000000000000, 1.000000000000000000 ) ) ;
#271 = CC_DESIGN_PERSON_AND_ORGANIZATION_ASSIGNMENT ( #282, #136, ( #256 ) ) ;
#272 = CARTESIAN_POINT ( 'NONE',  ( 0.000000000000000000, 0.000000000000000000, 10.00000000000000000 ) ) ;
#273 = DATE_TIME_ROLE ( 'classification_date' ) ;
#274 = LOCAL_TIME ( 11, 17, 27.00000000000000000, #129 ) ;
#275 = DIRECTION ( 'NONE',  ( 0.000000000000000000, 0.000000000000000000, 1.000000000000000000 ) ) ;
#276 = DIRECTION ( 'NONE',  ( 1.000000000000000000, 0.000000000000000000, 0.000000000000000000 ) ) ;
#277 =( LENGTH_UNIT ( ) NAMED_UNIT ( * ) SI_UNIT ( .MILLI., .METRE. ) );
#278 = DATE_TIME_ROLE ( 'creation_date' ) ;
#279 = AXIS2_PLACEMENT_3D ( 'NONE', #159, #134, #64 ) ;
#280 = AXIS2_PLACEMENT_3D ( 'NONE', #55, #239, #99 ) ;
#281 = APPROVAL_ROLE ( '' ) ;
#282 = PERSON_AND_ORGANIZATION ( #170, #152 ) ;
#283 = ORIENTED_EDGE ( 'NONE', *, *, #175, .F. ) ;
#284 = ADVANCED_BREP_SHAPE_REPRESENTATION ( 'bf13', ( #17, #279 ), #103 ) ;
#285 = CYLINDRICAL_SURFACE ( 'NONE', #269, 12.50000000000000000 ) ;
#286 = ORIENTED_EDGE ( 'NONE', *, *, #238, .T. ) ;
#287 = AXIS2_PLACEMENT_3D ( 'NONE', #35, #57, #82 ) ;
#288 = EDGE_CURVE ( 'NONE', #48, #43, #202, .T. ) ;
#289 = CARTESIAN_POINT ( 'NONE',  ( 0.000000000000000000, 0.000000000000000000, 10.19999999999998685 ) ) ;
#290 = LINE ( 'NONE', #73, #212 ) ;
#291 = VERTEX_POINT ( 'NONE', #8 ) ;
#292 = CIRCLE ( 'NONE', #33, 16.00000000000000000 ) ;
#293 = EDGE_CURVE ( 'NONE', #233, #165, #96, .T. ) ;
#294 = CARTESIAN_POINT ( 'NONE',  ( -16.00000000000000000, 0.000000000000000000, 10.00000000000000000 ) ) ;
#295 = DIRECTION ( 'NONE',  ( -0.000000000000000000, -0.000000000000000000, -1.000000000000000000 ) ) ;
#296 = CC_DESIGN_APPROVAL ( #25, ( #113 ) ) ;
#297 = CC_DESIGN_PERSON_AND_ORGANIZATION_ASSIGNMENT ( #38, #224, ( #303 ) ) ;
#298 = PERSON_AND_ORGANIZATION ( #170, #152 ) ;
#299 = CARTESIAN_POINT ( 'NONE',  ( 16.00000000000000000, 1.959434878635765131E-15, 0.000000000000000000 ) ) ;
#300 = VECTOR ( 'NONE', #1, 1000.000000000000000 ) ;
#301 = COORDINATED_UNIVERSAL_TIME_OFFSET ( 1, 0, .AHEAD. ) ;
#302 = ORIENTED_EDGE ( 'NONE', *, *, #98, .F. ) ;
#303 = PRODUCT_DEFINITION_FORMATION_WITH_SPECIFIED_SOURCE ( 'LIBOVOLNÝ', '', #162, .NOT_KNOWN. ) ;
#304 = EDGE_LOOP ( 'NONE', ( #236, #185, #160, #85 ) ) ;
#305 = ORIENTED_EDGE ( 'NONE', *, *, #11, .F. ) ;
#306 = ORIENTED_EDGE ( 'NONE', *, *, #293, .F. ) ;
#307 = ORIENTED_EDGE ( 'NONE', *, *, #288, .F. ) ;
ENDSEC;
END-ISO-10303-21;
