ISO-10303-21;
HEADER;
FILE_DESCRIPTION (( 'STEP AP203' ),
    '1' );
FILE_NAME ('4911.STEP',
    '2022-06-20T09:30:50',
    ( '' ),
    ( '' ),
    'SwSTEP 2.0',
    'SolidWorks 2019',
    '' );
FILE_SCHEMA (( 'CONFIG_CONTROL_DESIGN' ));
ENDSEC;

DATA;
#1 = CALENDAR_DATE ( 2022, 20, 6 ) ;
#2 = APPROVAL_DATE_TIME ( #264, #290 ) ;
#3 = VERTEX_POINT ( 'NONE', #239 ) ;
#4 = VERTEX_POINT ( 'NONE', #195 ) ;
#5 = COORDINATED_UNIVERSAL_TIME_OFFSET ( 1, 0, .AHEAD. ) ;
#6 = ORIENTED_EDGE ( 'NONE', *, *, #229, .F. ) ;
#7 = LOCAL_TIME ( 11, 30, 50.00000000000000000, #5 ) ;
#8 = ORIENTED_EDGE ( 'NONE', *, *, #300, .F. ) ;
#9 = CIRCLE ( 'NONE', #114, 9.000000000000000000 ) ;
#10 = ORIENTED_EDGE ( 'NONE', *, *, #267, .T. ) ;
#11 = FACE_OUTER_BOUND ( 'NONE', #53, .T. ) ;
#12 = CIRCLE ( 'NONE', #238, 6.299999999999998934 ) ;
#13 = DIRECTION ( 'NONE',  ( -0.000000000000000000, -0.000000000000000000, -1.000000000000000000 ) ) ;
#14 = CC_DESIGN_APPROVAL ( #290, ( #260 ) ) ;
#15 = DIRECTION ( 'NONE',  ( 1.000000000000000000, 0.000000000000000000, -0.000000000000000000 ) ) ;
#16 = CARTESIAN_POINT ( 'NONE',  ( 0.000000000000000000, 0.000000000000000000, 322.0000000000000000 ) ) ;
#17 = CIRCLE ( 'NONE', #187, 6.099999999999999645 ) ;
#18 = DATE_AND_TIME ( #139, #236 ) ;
#19 = ADVANCED_FACE ( 'NONE', ( #266, #263 ), #98, .T. ) ;
#20 = DIRECTION ( 'NONE',  ( 0.000000000000000000, 0.000000000000000000, 1.000000000000000000 ) ) ;
#21 = CYLINDRICAL_SURFACE ( 'NONE', #78, 9.000000000000000000 ) ;
#22 = DIRECTION ( 'NONE',  ( 1.000000000000000000, 0.000000000000000000, 0.000000000000000000 ) ) ;
#23 = ADVANCED_FACE ( 'NONE', ( #240 ), #258, .F. ) ;
#24 = MECHANICAL_CONTEXT ( 'NONE', #72, 'mechanical' ) ;
#25 = DATE_TIME_ROLE ( 'creation_date' ) ;
#26 = APPROVAL_ROLE ( '' ) ;
#27 = ORIENTED_EDGE ( 'NONE', *, *, #300, .T. ) ;
#28 = ORIENTED_EDGE ( 'NONE', *, *, #67, .F. ) ;
#29 = PERSON_AND_ORGANIZATION_ROLE ( 'creator' ) ;
#30 = EDGE_LOOP ( 'NONE', ( #243, #167, #189, #96 ) ) ;
#31 = DATE_TIME_ROLE ( 'classification_date' ) ;
#32 = VERTEX_POINT ( 'NONE', #222 ) ;
#33 = CC_DESIGN_PERSON_AND_ORGANIZATION_ASSIGNMENT ( #188, #99, ( #260 ) ) ;
#34 = ORIENTED_EDGE ( 'NONE', *, *, #127, .T. ) ;
#35 = CARTESIAN_POINT ( 'NONE',  ( 0.000000000000000000, 0.000000000000000000, 322.0000000000000000 ) ) ;
#36 = UNCERTAINTY_MEASURE_WITH_UNIT (LENGTH_MEASURE( 1.000000000000000082E-05 ), #233, 'distance_accuracy_value', 'NONE');
#37 = DIRECTION ( 'NONE',  ( 0.000000000000000000, 0.000000000000000000, 1.000000000000000000 ) ) ;
#38 = DIRECTION ( 'NONE',  ( 0.000000000000000000, 0.000000000000000000, 1.000000000000000000 ) ) ;
#39 = CARTESIAN_POINT ( 'NONE',  ( -6.099999999999999645, 0.000000000000000000, 7.199999999999984190 ) ) ;
#40 = DIRECTION ( 'NONE',  ( 0.000000000000000000, 0.000000000000000000, 1.000000000000000000 ) ) ;
#41 = EDGE_CURVE ( 'NONE', #69, #100, #302, .T. ) ;
#42 =( NAMED_UNIT ( * ) SI_UNIT ( $, .STERADIAN. ) SOLID_ANGLE_UNIT ( ) );
#43 = DIRECTION ( 'NONE',  ( 1.000000000000000000, 0.000000000000000000, 0.000000000000000000 ) ) ;
#44 = VECTOR ( 'NONE', #13, 1000.000000000000000 ) ;
#45 = AXIS2_PLACEMENT_3D ( 'NONE', #255, #261, #206 ) ;
#46 = APPROVAL_ROLE ( '' ) ;
#47 = PERSON_AND_ORGANIZATION ( #66, #112 ) ;
#48 = EDGE_CURVE ( 'NONE', #32, #69, #17, .T. ) ;
#49 = ORIENTED_EDGE ( 'NONE', *, *, #163, .F. ) ;
#50 = CARTESIAN_POINT ( 'NONE',  ( 0.000000000000000000, 0.000000000000000000, 7.000000000000000000 ) ) ;
#51 = APPROVAL_ROLE ( '' ) ;
#52 = AXIS2_PLACEMENT_3D ( 'NONE', #232, #134, #85 ) ;
#53 = EDGE_LOOP ( 'NONE', ( #34, #172 ) ) ;
#54 = VERTEX_POINT ( 'NONE', #301 ) ;
#55 = PRODUCT_DEFINITION ( 'NEZNÁMÝ', '', #260, #223 ) ;
#56 = EDGE_LOOP ( 'NONE', ( #221, #289, #10, #6 ) ) ;
#57 = DIRECTION ( 'NONE',  ( 0.000000000000000000, 0.000000000000000000, 1.000000000000000000 ) ) ;
#58 = CARTESIAN_POINT ( 'NONE',  ( 0.000000000000000000, 0.000000000000000000, 7.199999999999984190 ) ) ;
#59 = PLANE ( 'NONE',  #226 ) ;
#60 = DIRECTION ( 'NONE',  ( -1.000000000000000000, 0.000000000000000000, 0.000000000000000000 ) ) ;
#61 = DIRECTION ( 'NONE',  ( -0.000000000000000000, -0.000000000000000000, -1.000000000000000000 ) ) ;
#62 =( NAMED_UNIT ( * ) PLANE_ANGLE_UNIT ( ) SI_UNIT ( $, .RADIAN. ) );
#63 = DIRECTION ( 'NONE',  ( 0.000000000000000000, 0.000000000000000000, 1.000000000000000000 ) ) ;
#64 = DIRECTION ( 'NONE',  ( -1.000000000000000000, 0.000000000000000000, 0.000000000000000000 ) ) ;
#65 = PRODUCT_DEFINITION_SHAPE ( 'NONE', 'NONE',  #55 ) ;
#66 = PERSON ( 'NEURÈENÝ', 'NEURÈENÝ', 'NEURÈENÝ', ('NEURÈENÝ'), ('NEURÈENÝ'), ('NEURÈENÝ') ) ;
#67 = EDGE_CURVE ( 'NONE', #126, #54, #217, .T. ) ;
#68 = SECURITY_CLASSIFICATION_LEVEL ( 'unclassified' ) ;
#69 = VERTEX_POINT ( 'NONE', #296 ) ;
#70 = EDGE_LOOP ( 'NONE', ( #246, #27 ) ) ;
#71 = ORIENTED_EDGE ( 'NONE', *, *, #67, .T. ) ;
#72 = APPLICATION_CONTEXT ( 'configuration controlled 3d designs of mechanical parts and assemblies' ) ;
#73 = ORIENTED_EDGE ( 'NONE', *, *, #156, .T. ) ;
#74 = ADVANCED_FACE ( 'NONE', ( #200 ), #276, .T. ) ;
#75 = ORIENTED_EDGE ( 'NONE', *, *, #159, .T. ) ;
#76 = FACE_OUTER_BOUND ( 'NONE', #56, .T. ) ;
#77 = CC_DESIGN_DATE_AND_TIME_ASSIGNMENT ( #193, #25, ( #55 ) ) ;
#78 = AXIS2_PLACEMENT_3D ( 'NONE', #136, #204, #64 ) ;
#79 = DIRECTION ( 'NONE',  ( 1.000000000000000000, 0.000000000000000000, -0.000000000000000000 ) ) ;
#80 = DIRECTION ( 'NONE',  ( -0.000000000000000000, -0.000000000000000000, -1.000000000000000000 ) ) ;
#81 = CARTESIAN_POINT ( 'NONE',  ( 0.000000000000000000, 0.000000000000000000, 0.000000000000000000 ) ) ;
#82 = AXIS2_PLACEMENT_3D ( 'NONE', #197, #273, #60 ) ;
#83 = CARTESIAN_POINT ( 'NONE',  ( 9.000000000000000000, 1.102182119232617714E-15, 7.000000000000000000 ) ) ;
#84 = EDGE_CURVE ( 'NONE', #100, #288, #91, .T. ) ;
#85 = DIRECTION ( 'NONE',  ( 1.000000000000000000, 0.000000000000000000, 0.000000000000000000 ) ) ;
#86 = APPLICATION_PROTOCOL_DEFINITION ( 'international standard', 'config_control_design', 1994, #157 ) ;
#87 = SECURITY_CLASSIFICATION ( '', '', #68 ) ;
#88 = CIRCLE ( 'NONE', #45, 0.1999999999999996503 ) ;
#89 = VECTOR ( 'NONE', #181, 1000.000000000000000 ) ;
#90 = DIRECTION ( 'NONE',  ( -0.000000000000000000, -0.000000000000000000, -1.000000000000000000 ) ) ;
#91 = CIRCLE ( 'NONE', #254, 6.099999999999999645 ) ;
#92 = AXIS2_PLACEMENT_3D ( 'NONE', #253, #203, #250 ) ;
#93 = DATE_AND_TIME ( #1, #7 ) ;
#94 = ADVANCED_FACE ( 'NONE', ( #179 ), #252, .T. ) ;
#95 = CALENDAR_DATE ( 2022, 20, 6 ) ;
#96 = ORIENTED_EDGE ( 'NONE', *, *, #191, .T. ) ;
#97 = CALENDAR_DATE ( 2022, 20, 6 ) ;
#98 = PLANE ( 'NONE',  #295 ) ;
#99 = PERSON_AND_ORGANIZATION_ROLE ( 'design_supplier' ) ;
#100 = VERTEX_POINT ( 'NONE', #39 ) ;
#101 =( GEOMETRIC_REPRESENTATION_CONTEXT ( 3 ) GLOBAL_UNCERTAINTY_ASSIGNED_CONTEXT ( ( #36 ) ) GLOBAL_UNIT_ASSIGNED_CONTEXT ( ( #233, #62, #42 ) ) REPRESENTATION_CONTEXT ( 'NONE', 'WORKASPACE' ) );
#102 = ORIENTED_EDGE ( 'NONE', *, *, #229, .T. ) ;
#103 = DIRECTION ( 'NONE',  ( 0.000000000000000000, 0.000000000000000000, 1.000000000000000000 ) ) ;
#104 = EDGE_CURVE ( 'NONE', #262, #3, #12, .T. ) ;
#105 = AXIS2_PLACEMENT_3D ( 'NONE', #81, #107, #131 ) ;
#106 = DIRECTION ( 'NONE',  ( 0.000000000000000000, 0.000000000000000000, 1.000000000000000000 ) ) ;
#107 = DIRECTION ( 'NONE',  ( 0.000000000000000000, 0.000000000000000000, 1.000000000000000000 ) ) ;
#108 = DIRECTION ( 'NONE',  ( 1.000000000000000000, 0.000000000000000000, 0.000000000000000000 ) ) ;
#109 = ADVANCED_FACE ( 'NONE', ( #132 ), #153, .F. ) ;
#110 = CARTESIAN_POINT ( 'NONE',  ( 0.000000000000000000, 0.000000000000000000, 0.000000000000000000 ) ) ;
#111 = CARTESIAN_POINT ( 'NONE',  ( 6.299999999999998934, 0.000000000000000000, 7.199999999999984190 ) ) ;
#112 = ORGANIZATION ( 'NEURÈENÝ', 'NEURÈENÝ', '' ) ;
#113 = MANIFOLD_SOLID_BREP ( 'Zaoblit1', #173 ) ;
#114 = AXIS2_PLACEMENT_3D ( 'NONE', #158, #37, #251 ) ;
#115 = CARTESIAN_POINT ( 'NONE',  ( 6.299999999999998934, 0.000000000000000000, 6.999999999999992006 ) ) ;
#116 = PERSON_AND_ORGANIZATION ( #66, #112 ) ;
#117 = CC_DESIGN_DATE_AND_TIME_ASSIGNMENT ( #93, #31, ( #87 ) ) ;
#118 = PERSON_AND_ORGANIZATION ( #66, #112 ) ;
#119 = ORIENTED_EDGE ( 'NONE', *, *, #248, .T. ) ;
#120 = CC_DESIGN_APPROVAL ( #218, ( #55 ) ) ;
#121 = VECTOR ( 'NONE', #80, 1000.000000000000000 ) ;
#122 = DATE_AND_TIME ( #95, #150 ) ;
#123 = ORIENTED_EDGE ( 'NONE', *, *, #48, .F. ) ;
#124 = COORDINATED_UNIVERSAL_TIME_OFFSET ( 1, 0, .AHEAD. ) ;
#125 = ORIENTED_EDGE ( 'NONE', *, *, #84, .F. ) ;
#126 = VERTEX_POINT ( 'NONE', #225 ) ;
#127 = EDGE_CURVE ( 'NONE', #69, #32, #182, .T. ) ;
#128 = EDGE_LOOP ( 'NONE', ( #293, #28 ) ) ;
#129 = CARTESIAN_POINT ( 'NONE',  ( -6.099999999999999645, 0.000000000000000000, 322.0000000000000000 ) ) ;
#130 = CARTESIAN_POINT ( 'NONE',  ( 0.000000000000000000, 0.000000000000000000, 7.000000000000000000 ) ) ;
#131 = DIRECTION ( 'NONE',  ( 1.000000000000000000, 0.000000000000000000, 0.000000000000000000 ) ) ;
#132 = FACE_OUTER_BOUND ( 'NONE', #128, .T. ) ;
#133 = DIRECTION ( 'NONE',  ( 1.000000000000000000, 0.000000000000000000, 0.000000000000000000 ) ) ;
#134 = DIRECTION ( 'NONE',  ( 0.000000000000000000, 0.000000000000000000, 1.000000000000000000 ) ) ;
#135 = CC_DESIGN_PERSON_AND_ORGANIZATION_ASSIGNMENT ( #118, #171, ( #55 ) ) ;
#136 = CARTESIAN_POINT ( 'NONE',  ( 0.000000000000000000, 0.000000000000000000, 7.000000000000000000 ) ) ;
#137 = CARTESIAN_POINT ( 'NONE',  ( 0.000000000000000000, 0.000000000000000000, 0.000000000000000000 ) ) ;
#138 = APPLICATION_PROTOCOL_DEFINITION ( 'international standard', 'config_control_design', 1994, #72 ) ;
#139 = CALENDAR_DATE ( 2022, 20, 6 ) ;
#140 = APPROVAL_DATE_TIME ( #122, #205 ) ;
#141 = EDGE_LOOP ( 'NONE', ( #125, #119, #192, #292 ) ) ;
#142 = AXIS2_PLACEMENT_3D ( 'NONE', #110, #249, #79 ) ;
#143 = PERSON_AND_ORGANIZATION ( #66, #112 ) ;
#144 = DIRECTION ( 'NONE',  ( 0.000000000000000000, 0.000000000000000000, 1.000000000000000000 ) ) ;
#145 = CIRCLE ( 'NONE', #268, 0.1999999999999996503 ) ;
#146 = SHAPE_DEFINITION_REPRESENTATION ( #65, #166 ) ;
#147 = ORIENTED_EDGE ( 'NONE', *, *, #84, .T. ) ;
#148 = COORDINATED_UNIVERSAL_TIME_OFFSET ( 1, 0, .AHEAD. ) ;
#149 = EDGE_LOOP ( 'NONE', ( #123, #291, #73, #247 ) ) ;
#150 = LOCAL_TIME ( 11, 30, 50.00000000000000000, #196 ) ;
#151 = ADVANCED_FACE ( 'NONE', ( #11 ), #59, .T. ) ;
#152 = TOROIDAL_SURFACE ( 'NONE', #52, 6.299999999999998934, 0.2000000000000000111 ) ;
#153 = PLANE ( 'NONE',  #142 ) ;
#154 = DIRECTION ( 'NONE',  ( -0.000000000000000000, -0.000000000000000000, -1.000000000000000000 ) ) ;
#155 = DIRECTION ( 'NONE',  ( 1.000000000000000000, 0.000000000000000000, 0.000000000000000000 ) ) ;
#156 = EDGE_CURVE ( 'NONE', #288, #100, #214, .T. ) ;
#157 = APPLICATION_CONTEXT ( 'configuration controlled 3d designs of mechanical parts and assemblies' ) ;
#158 = CARTESIAN_POINT ( 'NONE',  ( 0.000000000000000000, 0.000000000000000000, 0.000000000000000000 ) ) ;
#159 = EDGE_CURVE ( 'NONE', #215, #126, #174, .T. ) ;
#160 = DIRECTION ( 'NONE',  ( -1.000000000000000000, 0.000000000000000000, 0.000000000000000000 ) ) ;
#161 = AXIS2_PLACEMENT_3D ( 'NONE', #130, #38, #108 ) ;
#162 = FACE_OUTER_BOUND ( 'NONE', #30, .T. ) ;
#163 = EDGE_CURVE ( 'NONE', #32, #288, #175, .T. ) ;
#164 = COORDINATED_UNIVERSAL_TIME_OFFSET ( 1, 0, .AHEAD. ) ;
#165 = EDGE_LOOP ( 'NONE', ( #170, #102 ) ) ;
#166 = ADVANCED_BREP_SHAPE_REPRESENTATION ( '4911', ( #113, #199 ), #101 ) ;
#167 = ORIENTED_EDGE ( 'NONE', *, *, #210, .F. ) ;
#168 = DIRECTION ( 'NONE',  ( 1.000000000000000000, 0.000000000000000000, -0.000000000000000000 ) ) ;
#169 = AXIS2_PLACEMENT_3D ( 'NONE', #257, #90, #160 ) ;
#170 = ORIENTED_EDGE ( 'NONE', *, *, #104, .T. ) ;
#171 = PERSON_AND_ORGANIZATION_ROLE ( 'creator' ) ;
#172 = ORIENTED_EDGE ( 'NONE', *, *, #48, .T. ) ;
#173 = CLOSED_SHELL ( 'NONE', ( #23, #94, #74, #234, #19, #109, #304, #151, #224 ) ) ;
#174 = LINE ( 'NONE', #83, #121 ) ;
#175 = LINE ( 'NONE', #279, #298 ) ;
#176 = CARTESIAN_POINT ( 'NONE',  ( 0.000000000000000000, 0.000000000000000000, 7.000000000000000000 ) ) ;
#177 = AXIS2_PLACEMENT_3D ( 'NONE', #58, #198, #274 ) ;
#178 = CARTESIAN_POINT ( 'NONE',  ( 0.000000000000000000, 0.000000000000000000, 7.199999999999984190 ) ) ;
#179 = FACE_OUTER_BOUND ( 'NONE', #149, .T. ) ;
#180 = AXIS2_PLACEMENT_3D ( 'NONE', #235, #284, #186 ) ;
#181 = DIRECTION ( 'NONE',  ( -0.000000000000000000, -0.000000000000000000, -1.000000000000000000 ) ) ;
#182 = CIRCLE ( 'NONE', #92, 6.099999999999999645 ) ;
#183 = CIRCLE ( 'NONE', #180, 6.299999999999998934 ) ;
#184 = AXIS2_PLACEMENT_3D ( 'NONE', #299, #106, #155 ) ;
#185 = CARTESIAN_POINT ( 'NONE',  ( -9.000000000000000000, 0.000000000000000000, 7.000000000000000000 ) ) ;
#186 = DIRECTION ( 'NONE',  ( 1.000000000000000000, 0.000000000000000000, 0.000000000000000000 ) ) ;
#187 = AXIS2_PLACEMENT_3D ( 'NONE', #275, #57, #133 ) ;
#188 = PERSON_AND_ORGANIZATION ( #66, #112 ) ;
#189 = ORIENTED_EDGE ( 'NONE', *, *, #282, .T. ) ;
#190 = AXIS2_PLACEMENT_3D ( 'NONE', #305, #20, #22 ) ;
#191 = EDGE_CURVE ( 'NONE', #54, #126, #9, .T. ) ;
#192 = ORIENTED_EDGE ( 'NONE', *, *, #104, .F. ) ;
#193 = DATE_AND_TIME ( #97, #297 ) ;
#194 = APPROVAL_DATE_TIME ( #18, #218 ) ;
#195 = CARTESIAN_POINT ( 'NONE',  ( -9.000000000000000000, 0.000000000000000000, 7.000000000000000000 ) ) ;
#196 = COORDINATED_UNIVERSAL_TIME_OFFSET ( 1, 0, .AHEAD. ) ;
#197 = CARTESIAN_POINT ( 'NONE',  ( 0.000000000000000000, 0.000000000000000000, 7.000000000000000000 ) ) ;
#198 = DIRECTION ( 'NONE',  ( 0.000000000000000000, 0.000000000000000000, 1.000000000000000000 ) ) ;
#199 = AXIS2_PLACEMENT_3D ( 'NONE', #137, #63, #43 ) ;
#200 = FACE_OUTER_BOUND ( 'NONE', #213, .T. ) ;
#201 = PRODUCT ( '4911', '4911', '', ( #24 ) ) ;
#202 = CARTESIAN_POINT ( 'NONE',  ( 9.000000000000000000, 1.102182119232617714E-15, 7.000000000000000000 ) ) ;
#203 = DIRECTION ( 'NONE',  ( 0.000000000000000000, 0.000000000000000000, 1.000000000000000000 ) ) ;
#204 = DIRECTION ( 'NONE',  ( -0.000000000000000000, -0.000000000000000000, -1.000000000000000000 ) ) ;
#205 = APPROVAL ( #270, 'NEURÈENÝ' ) ;
#206 = DIRECTION ( 'NONE',  ( -1.000000000000000000, 1.224646799147353454E-16, 0.000000000000000000 ) ) ;
#207 = PERSON_AND_ORGANIZATION ( #66, #112 ) ;
#208 = DIRECTION ( 'NONE',  ( 0.000000000000000000, -1.000000000000000000, 0.000000000000000000 ) ) ;
#209 = PERSON_AND_ORGANIZATION_ROLE ( 'classification_officer' ) ;
#210 = EDGE_CURVE ( 'NONE', #4, #215, #241, .T. ) ;
#211 = CALENDAR_DATE ( 2022, 20, 6 ) ;
#212 = CIRCLE ( 'NONE', #190, 9.000000000000000000 ) ;
#213 = EDGE_LOOP ( 'NONE', ( #8, #75, #71, #271 ) ) ;
#214 = CIRCLE ( 'NONE', #184, 6.099999999999999645 ) ;
#215 = VERTEX_POINT ( 'NONE', #202 ) ;
#216 = EDGE_LOOP ( 'NONE', ( #49, #219, #269, #147 ) ) ;
#217 = CIRCLE ( 'NONE', #105, 9.000000000000000000 ) ;
#218 = APPROVAL ( #259, 'NEURÈENÝ' ) ;
#219 = ORIENTED_EDGE ( 'NONE', *, *, #127, .F. ) ;
#220 = CC_DESIGN_APPROVAL ( #205, ( #87 ) ) ;
#221 = ORIENTED_EDGE ( 'NONE', *, *, #248, .F. ) ;
#222 = CARTESIAN_POINT ( 'NONE',  ( 6.099999999999999645, 7.470345474798854293E-16, 322.0000000000000000 ) ) ;
#223 = DESIGN_CONTEXT ( 'detailed design', #157, 'design' ) ;
#224 = ADVANCED_FACE ( 'NONE', ( #76 ), #152, .F. ) ;
#225 = CARTESIAN_POINT ( 'NONE',  ( 9.000000000000000000, 1.102182119232617714E-15, 0.000000000000000000 ) ) ;
#226 = AXIS2_PLACEMENT_3D ( 'NONE', #35, #103, #15 ) ;
#227 = DIRECTION ( 'NONE',  ( -0.000000000000000000, -0.000000000000000000, -1.000000000000000000 ) ) ;
#228 = DIRECTION ( 'NONE',  ( 1.000000000000000000, 0.000000000000000000, 0.000000000000000000 ) ) ;
#229 = EDGE_CURVE ( 'NONE', #3, #262, #183, .T. ) ;
#230 = DIRECTION ( 'NONE',  ( -1.000000000000000000, 0.000000000000000000, 0.000000000000000000 ) ) ;
#231 = CC_DESIGN_SECURITY_CLASSIFICATION ( #87, ( #260 ) ) ;
#232 = CARTESIAN_POINT ( 'NONE',  ( 0.000000000000000000, 0.000000000000000000, 7.199999999999984190 ) ) ;
#233 =( LENGTH_UNIT ( ) NAMED_UNIT ( * ) SI_UNIT ( .MILLI., .METRE. ) );
#234 = ADVANCED_FACE ( 'NONE', ( #162 ), #21, .T. ) ;
#235 = CARTESIAN_POINT ( 'NONE',  ( 0.000000000000000000, 0.000000000000000000, 7.000000000000000000 ) ) ;
#236 = LOCAL_TIME ( 11, 30, 50.00000000000000000, #164 ) ;
#237 = DIRECTION ( 'NONE',  ( 0.000000000000000000, 0.000000000000000000, -1.000000000000000000 ) ) ;
#238 = AXIS2_PLACEMENT_3D ( 'NONE', #176, #154, #294 ) ;
#239 = CARTESIAN_POINT ( 'NONE',  ( -6.299999999999998934, 7.715274834628324392E-16, 6.999999999999992006 ) ) ;
#240 = FACE_OUTER_BOUND ( 'NONE', #141, .T. ) ;
#241 = CIRCLE ( 'NONE', #161, 9.000000000000000000 ) ;
#242 = PERSON_AND_ORGANIZATION ( #66, #112 ) ;
#243 = ORIENTED_EDGE ( 'NONE', *, *, #159, .F. ) ;
#244 = PRODUCT_RELATED_PRODUCT_CATEGORY ( 'detail', '', ( #201 ) ) ;
#245 = APPROVAL_STATUS ( 'not_yet_approved' ) ;
#246 = ORIENTED_EDGE ( 'NONE', *, *, #210, .T. ) ;
#247 = ORIENTED_EDGE ( 'NONE', *, *, #41, .F. ) ;
#248 = EDGE_CURVE ( 'NONE', #100, #3, #88, .T. ) ;
#249 = DIRECTION ( 'NONE',  ( 0.000000000000000000, 0.000000000000000000, 1.000000000000000000 ) ) ;
#250 = DIRECTION ( 'NONE',  ( 1.000000000000000000, 0.000000000000000000, 0.000000000000000000 ) ) ;
#251 = DIRECTION ( 'NONE',  ( 1.000000000000000000, 0.000000000000000000, 0.000000000000000000 ) ) ;
#252 = CYLINDRICAL_SURFACE ( 'NONE', #281, 6.099999999999999645 ) ;
#253 = CARTESIAN_POINT ( 'NONE',  ( 0.000000000000000000, 0.000000000000000000, 322.0000000000000000 ) ) ;
#254 = AXIS2_PLACEMENT_3D ( 'NONE', #178, #40, #228 ) ;
#255 = CARTESIAN_POINT ( 'NONE',  ( -6.299999999999998934, 7.715274834628324392E-16, 7.199999999999984190 ) ) ;
#256 = APPROVAL_PERSON_ORGANIZATION ( #307, #218, #46 ) ;
#257 = CARTESIAN_POINT ( 'NONE',  ( 0.000000000000000000, 0.000000000000000000, 322.0000000000000000 ) ) ;
#258 = TOROIDAL_SURFACE ( 'NONE', #177, 6.299999999999998934, 0.2000000000000000111 ) ;
#259 = APPROVAL_STATUS ( 'not_yet_approved' ) ;
#260 = PRODUCT_DEFINITION_FORMATION_WITH_SPECIFIED_SOURCE ( 'LIBOVOLNÝ', '', #201, .NOT_KNOWN. ) ;
#261 = DIRECTION ( 'NONE',  ( 1.224646799147353207E-16, 1.000000000000000000, -0.000000000000000000 ) ) ;
#262 = VERTEX_POINT ( 'NONE', #115 ) ;
#263 = FACE_OUTER_BOUND ( 'NONE', #70, .T. ) ;
#264 = DATE_AND_TIME ( #211, #265 ) ;
#265 = LOCAL_TIME ( 11, 30, 50.00000000000000000, #148 ) ;
#266 = FACE_BOUND ( 'NONE', #165, .T. ) ;
#267 = EDGE_CURVE ( 'NONE', #288, #262, #145, .T. ) ;
#268 = AXIS2_PLACEMENT_3D ( 'NONE', #111, #208, #237 ) ;
#269 = ORIENTED_EDGE ( 'NONE', *, *, #41, .T. ) ;
#270 = APPROVAL_STATUS ( 'not_yet_approved' ) ;
#271 = ORIENTED_EDGE ( 'NONE', *, *, #282, .F. ) ;
#272 = CC_DESIGN_PERSON_AND_ORGANIZATION_ASSIGNMENT ( #207, #306, ( #201 ) ) ;
#273 = DIRECTION ( 'NONE',  ( -0.000000000000000000, -0.000000000000000000, -1.000000000000000000 ) ) ;
#274 = DIRECTION ( 'NONE',  ( 1.000000000000000000, 0.000000000000000000, 0.000000000000000000 ) ) ;
#275 = CARTESIAN_POINT ( 'NONE',  ( 0.000000000000000000, 0.000000000000000000, 322.0000000000000000 ) ) ;
#276 = CYLINDRICAL_SURFACE ( 'NONE', #82, 9.000000000000000000 ) ;
#277 = CC_DESIGN_PERSON_AND_ORGANIZATION_ASSIGNMENT ( #116, #209, ( #87 ) ) ;
#278 = APPROVAL_PERSON_ORGANIZATION ( #47, #290, #26 ) ;
#279 = CARTESIAN_POINT ( 'NONE',  ( 6.099999999999999645, 7.470345474798854293E-16, 322.0000000000000000 ) ) ;
#280 = CYLINDRICAL_SURFACE ( 'NONE', #169, 6.099999999999999645 ) ;
#281 = AXIS2_PLACEMENT_3D ( 'NONE', #16, #227, #230 ) ;
#282 = EDGE_CURVE ( 'NONE', #4, #54, #303, .T. ) ;
#283 = FACE_OUTER_BOUND ( 'NONE', #216, .T. ) ;
#284 = DIRECTION ( 'NONE',  ( -0.000000000000000000, -0.000000000000000000, -1.000000000000000000 ) ) ;
#285 = CARTESIAN_POINT ( 'NONE',  ( 6.099999999999999645, 7.470345474798854293E-16, 7.199999999999984190 ) ) ;
#286 = CC_DESIGN_PERSON_AND_ORGANIZATION_ASSIGNMENT ( #242, #29, ( #260 ) ) ;
#287 = APPROVAL_PERSON_ORGANIZATION ( #143, #205, #51 ) ;
#288 = VERTEX_POINT ( 'NONE', #285 ) ;
#289 = ORIENTED_EDGE ( 'NONE', *, *, #156, .F. ) ;
#290 = APPROVAL ( #245, 'NEURÈENÝ' ) ;
#291 = ORIENTED_EDGE ( 'NONE', *, *, #163, .T. ) ;
#292 = ORIENTED_EDGE ( 'NONE', *, *, #267, .F. ) ;
#293 = ORIENTED_EDGE ( 'NONE', *, *, #191, .F. ) ;
#294 = DIRECTION ( 'NONE',  ( 1.000000000000000000, 0.000000000000000000, 0.000000000000000000 ) ) ;
#295 = AXIS2_PLACEMENT_3D ( 'NONE', #50, #144, #168 ) ;
#296 = CARTESIAN_POINT ( 'NONE',  ( -6.099999999999999645, 0.000000000000000000, 322.0000000000000000 ) ) ;
#297 = LOCAL_TIME ( 11, 30, 50.00000000000000000, #124 ) ;
#298 = VECTOR ( 'NONE', #61, 1000.000000000000000 ) ;
#299 = CARTESIAN_POINT ( 'NONE',  ( 0.000000000000000000, 0.000000000000000000, 7.199999999999984190 ) ) ;
#300 = EDGE_CURVE ( 'NONE', #215, #4, #212, .T. ) ;
#301 = CARTESIAN_POINT ( 'NONE',  ( -9.000000000000000000, 0.000000000000000000, 0.000000000000000000 ) ) ;
#302 = LINE ( 'NONE', #129, #44 ) ;
#303 = LINE ( 'NONE', #185, #89 ) ;
#304 = ADVANCED_FACE ( 'NONE', ( #283 ), #280, .T. ) ;
#305 = CARTESIAN_POINT ( 'NONE',  ( 0.000000000000000000, 0.000000000000000000, 7.000000000000000000 ) ) ;
#306 = PERSON_AND_ORGANIZATION_ROLE ( 'design_owner' ) ;
#307 = PERSON_AND_ORGANIZATION ( #66, #112 ) ;
ENDSEC;
END-ISO-10303-21;
