ISO-10303-21;
HEADER;
FILE_DESCRIPTION (( 'STEP AP203' ),
    '1' );
FILE_NAME ('3ad2.STEP',
    '2022-06-20T09:36:05',
    ( '' ),
    ( '' ),
    'SwSTEP 2.0',
    'SolidWorks 2019',
    '' );
FILE_SCHEMA (( 'CONFIG_CONTROL_DESIGN' ));
ENDSEC;

DATA;
#1 = CC_DESIGN_DATE_AND_TIME_ASSIGNMENT ( #4, #195, ( #55 ) ) ;
#2 = CARTESIAN_POINT ( 'NONE',  ( -5.500000000000000000, 0.000000000000000000, 165.0000000000000000 ) ) ;
#3 = CC_DESIGN_APPROVAL ( #7, ( #124 ) ) ;
#4 = DATE_AND_TIME ( #173, #41 ) ;
#5 = LINE ( 'NONE', #216, #98 ) ;
#6 = PERSON_AND_ORGANIZATION_ROLE ( 'design_supplier' ) ;
#7 = APPROVAL ( #169, 'NEURÈENÝ' ) ;
#8 = SECURITY_CLASSIFICATION_LEVEL ( 'unclassified' ) ;
#9 = CALENDAR_DATE ( 2022, 20, 6 ) ;
#10 = DATE_TIME_ROLE ( 'classification_date' ) ;
#11 = DIRECTION ( 'NONE',  ( -0.000000000000000000, -0.000000000000000000, -1.000000000000000000 ) ) ;
#12 = VECTOR ( 'NONE', #48, 1000.000000000000000 ) ;
#13 = DIRECTION ( 'NONE',  ( -0.000000000000000000, -0.000000000000000000, -1.000000000000000000 ) ) ;
#14 = ORIENTED_EDGE ( 'NONE', *, *, #104, .T. ) ;
#15 = ORIENTED_EDGE ( 'NONE', *, *, #126, .T. ) ;
#16 = EDGE_LOOP ( 'NONE', ( #298, #202, #265, #159 ) ) ;
#17 = CIRCLE ( 'NONE', #180, 5.500000000000000000 ) ;
#18 = VERTEX_POINT ( 'NONE', #258 ) ;
#19 = DIRECTION ( 'NONE',  ( 0.000000000000000000, 0.000000000000000000, 1.000000000000000000 ) ) ;
#20 = ADVANCED_BREP_SHAPE_REPRESENTATION ( '3ad2', ( #120, #49 ), #136 ) ;
#21 = EDGE_LOOP ( 'NONE', ( #254, #277, #14, #45 ) ) ;
#22 = DIRECTION ( 'NONE',  ( -1.000000000000000000, 0.000000000000000000, 0.000000000000000000 ) ) ;
#23 = DESIGN_CONTEXT ( 'detailed design', #208, 'design' ) ;
#24 = CARTESIAN_POINT ( 'NONE',  ( 0.000000000000000000, 0.000000000000000000, 165.0000000000000000 ) ) ;
#25 = AXIS2_PLACEMENT_3D ( 'NONE', #44, #224, #228 ) ;
#26 = EDGE_CURVE ( 'NONE', #274, #50, #297, .T. ) ;
#27 = DIRECTION ( 'NONE',  ( 1.000000000000000000, 0.000000000000000000, 0.000000000000000000 ) ) ;
#28 = FACE_OUTER_BOUND ( 'NONE', #250, .T. ) ;
#29 = AXIS2_PLACEMENT_3D ( 'NONE', #256, #177, #275 ) ;
#30 = APPROVAL_ROLE ( '' ) ;
#31 = FACE_OUTER_BOUND ( 'NONE', #198, .T. ) ;
#32 = APPLICATION_PROTOCOL_DEFINITION ( 'international standard', 'config_control_design', 1994, #208 ) ;
#33 = DIRECTION ( 'NONE',  ( 1.000000000000000000, 0.000000000000000000, 0.000000000000000000 ) ) ;
#34 = CC_DESIGN_DATE_AND_TIME_ASSIGNMENT ( #289, #10, ( #124 ) ) ;
#35 = PERSON_AND_ORGANIZATION_ROLE ( 'creator' ) ;
#36 = ADVANCED_FACE ( 'NONE', ( #160 ), #156, .T. ) ;
#37 = APPROVAL_DATE_TIME ( #105, #191 ) ;
#38 = CARTESIAN_POINT ( 'NONE',  ( -5.500000000000000000, 0.000000000000000000, 5.200000000000009948 ) ) ;
#39 = EDGE_CURVE ( 'NONE', #50, #274, #197, .T. ) ;
#40 = ORIENTED_EDGE ( 'NONE', *, *, #104, .F. ) ;
#41 = LOCAL_TIME ( 11, 36, 5.000000000000000000, #52 ) ;
#42 = CARTESIAN_POINT ( 'NONE',  ( 0.000000000000000000, 0.000000000000000000, 165.0000000000000000 ) ) ;
#43 = DIRECTION ( 'NONE',  ( -0.000000000000000000, -0.000000000000000000, -1.000000000000000000 ) ) ;
#44 = CARTESIAN_POINT ( 'NONE',  ( 0.000000000000000000, 0.000000000000000000, 5.000000000000000000 ) ) ;
#45 = ORIENTED_EDGE ( 'NONE', *, *, #199, .F. ) ;
#46 = LOCAL_TIME ( 11, 36, 5.000000000000000000, #270 ) ;
#47 = LINE ( 'NONE', #213, #12 ) ;
#48 = DIRECTION ( 'NONE',  ( -0.000000000000000000, -0.000000000000000000, -1.000000000000000000 ) ) ;
#49 = AXIS2_PLACEMENT_3D ( 'NONE', #233, #19, #206 ) ;
#50 = VERTEX_POINT ( 'NONE', #75 ) ;
#51 = EDGE_CURVE ( 'NONE', #175, #18, #118, .T. ) ;
#52 = COORDINATED_UNIVERSAL_TIME_OFFSET ( 1, 0, .AHEAD. ) ;
#53 = CYLINDRICAL_SURFACE ( 'NONE', #56, 5.500000000000000000 ) ;
#54 = COORDINATED_UNIVERSAL_TIME_OFFSET ( 1, 0, .AHEAD. ) ;
#55 = PRODUCT_DEFINITION ( 'NEZNÁMÝ', '', #291, #23 ) ;
#56 = AXIS2_PLACEMENT_3D ( 'NONE', #145, #240, #116 ) ;
#57 = CC_DESIGN_APPROVAL ( #130, ( #55 ) ) ;
#58 = DIRECTION ( 'NONE',  ( 0.000000000000000000, 0.000000000000000000, 1.000000000000000000 ) ) ;
#59 = EDGE_LOOP ( 'NONE', ( #62, #63 ) ) ;
#60 = VERTEX_POINT ( 'NONE', #261 ) ;
#61 = CARTESIAN_POINT ( 'NONE',  ( 0.000000000000000000, 0.000000000000000000, 5.000000000000000000 ) ) ;
#62 = ORIENTED_EDGE ( 'NONE', *, *, #276, .T. ) ;
#63 = ORIENTED_EDGE ( 'NONE', *, *, #148, .T. ) ;
#64 = PRODUCT_RELATED_PRODUCT_CATEGORY ( 'detail', '', ( #139 ) ) ;
#65 = AXIS2_PLACEMENT_3D ( 'NONE', #140, #99, #27 ) ;
#66 = FACE_OUTER_BOUND ( 'NONE', #67, .T. ) ;
#67 = EDGE_LOOP ( 'NONE', ( #280, #40 ) ) ;
#68 = CARTESIAN_POINT ( 'NONE',  ( 0.000000000000000000, 0.000000000000000000, 5.200000000000009948 ) ) ;
#69 = CIRCLE ( 'NONE', #110, 0.1999999999999996503 ) ;
#70 = DIRECTION ( 'NONE',  ( 1.000000000000000000, 0.000000000000000000, 0.000000000000000000 ) ) ;
#71 = CC_DESIGN_PERSON_AND_ORGANIZATION_ASSIGNMENT ( #246, #271, ( #55 ) ) ;
#72 = AXIS2_PLACEMENT_3D ( 'NONE', #150, #293, #174 ) ;
#73 = VERTEX_POINT ( 'NONE', #283 ) ;
#74 = CALENDAR_DATE ( 2022, 20, 6 ) ;
#75 = CARTESIAN_POINT ( 'NONE',  ( 8.000000000000000000, 9.797174393178825657E-16, 5.000000000000000000 ) ) ;
#76 = PERSON_AND_ORGANIZATION_ROLE ( 'classification_officer' ) ;
#77 = AXIS2_PLACEMENT_3D ( 'NONE', #273, #196, #152 ) ;
#78 = DATE_AND_TIME ( #123, #46 ) ;
#79 = APPROVAL_ROLE ( '' ) ;
#80 = CC_DESIGN_PERSON_AND_ORGANIZATION_ASSIGNMENT ( #106, #35, ( #291 ) ) ;
#81 = ORIENTED_EDGE ( 'NONE', *, *, #288, .F. ) ;
#82 = PLANE ( 'NONE',  #151 ) ;
#83 = ORIENTED_EDGE ( 'NONE', *, *, #276, .F. ) ;
#84 = APPROVAL_PERSON_ORGANIZATION ( #129, #191, #79 ) ;
#85 = CIRCLE ( 'NONE', #286, 0.1999999999999996503 ) ;
#86 = EDGE_CURVE ( 'NONE', #122, #307, #243, .T. ) ;
#87 = EDGE_LOOP ( 'NONE', ( #231, #133 ) ) ;
#88 = ORIENTED_EDGE ( 'NONE', *, *, #211, .F. ) ;
#89 = DIRECTION ( 'NONE',  ( -0.000000000000000000, -0.000000000000000000, -1.000000000000000000 ) ) ;
#90 = EDGE_CURVE ( 'NONE', #175, #122, #47, .T. ) ;
#91 = APPLICATION_CONTEXT ( 'configuration controlled 3d designs of mechanical parts and assemblies' ) ;
#92 = MECHANICAL_CONTEXT ( 'NONE', #91, 'mechanical' ) ;
#93 = ORGANIZATION ( 'NEURÈENÝ', 'NEURÈENÝ', '' ) ;
#94 = DIRECTION ( 'NONE',  ( 1.000000000000000000, 0.000000000000000000, 0.000000000000000000 ) ) ;
#95 = ADVANCED_FACE ( 'NONE', ( #187 ), #97, .T. ) ;
#96 = VECTOR ( 'NONE', #89, 1000.000000000000000 ) ;
#97 = CYLINDRICAL_SURFACE ( 'NONE', #185, 8.000000000000000000 ) ;
#98 = VECTOR ( 'NONE', #43, 1000.000000000000000 ) ;
#99 = DIRECTION ( 'NONE',  ( 0.000000000000000000, 0.000000000000000000, 1.000000000000000000 ) ) ;
#100 = SHAPE_DEFINITION_REPRESENTATION ( #260, #20 ) ;
#101 = CARTESIAN_POINT ( 'NONE',  ( 5.500000000000000000, 6.735557395310442023E-16, 165.0000000000000000 ) ) ;
#102 = CYLINDRICAL_SURFACE ( 'NONE', #72, 5.500000000000000000 ) ;
#103 = AXIS2_PLACEMENT_3D ( 'NONE', #237, #189, #264 ) ;
#104 = EDGE_CURVE ( 'NONE', #60, #73, #267, .T. ) ;
#105 = DATE_AND_TIME ( #9, #193 ) ;
#106 = PERSON_AND_ORGANIZATION ( #287, #93 ) ;
#107 = TOROIDAL_SURFACE ( 'NONE', #263, 5.699999999999999289, 0.2000000000000000111 ) ;
#108 = FACE_BOUND ( 'NONE', #59, .T. ) ;
#109 = DIRECTION ( 'NONE',  ( 1.000000000000000000, 0.000000000000000000, 0.000000000000000000 ) ) ;
#110 = AXIS2_PLACEMENT_3D ( 'NONE', #119, #143, #162 ) ;
#111 = EDGE_CURVE ( 'NONE', #307, #112, #69, .T. ) ;
#112 = VERTEX_POINT ( 'NONE', #168 ) ;
#113 = CYLINDRICAL_SURFACE ( 'NONE', #165, 8.000000000000000000 ) ;
#114 = AXIS2_PLACEMENT_3D ( 'NONE', #272, #11, #244 ) ;
#115 = ORIENTED_EDGE ( 'NONE', *, *, #199, .T. ) ;
#116 = DIRECTION ( 'NONE',  ( -1.000000000000000000, 0.000000000000000000, 0.000000000000000000 ) ) ;
#117 = ADVANCED_FACE ( 'NONE', ( #28 ), #53, .T. ) ;
#118 = CIRCLE ( 'NONE', #192, 5.500000000000000000 ) ;
#119 = CARTESIAN_POINT ( 'NONE',  ( -5.699999999999999289, 6.980486755139912122E-16, 5.200000000000009948 ) ) ;
#120 = MANIFOLD_SOLID_BREP ( 'Zaoblit1', #249 ) ;
#121 = EDGE_CURVE ( 'NONE', #18, #307, #207, .T. ) ;
#122 = VERTEX_POINT ( 'NONE', #222 ) ;
#123 = CALENDAR_DATE ( 2022, 20, 6 ) ;
#124 = SECURITY_CLASSIFICATION ( '', '', #8 ) ;
#125 = APPROVAL_STATUS ( 'not_yet_approved' ) ;
#126 = EDGE_CURVE ( 'NONE', #122, #300, #85, .T. ) ;
#127 = COORDINATED_UNIVERSAL_TIME_OFFSET ( 1, 0, .AHEAD. ) ;
#128 = DIRECTION ( 'NONE',  ( 0.000000000000000000, -1.000000000000000000, 0.000000000000000000 ) ) ;
#129 = PERSON_AND_ORGANIZATION ( #287, #93 ) ;
#130 = APPROVAL ( #125, 'NEURÈENÝ' ) ;
#131 = ORIENTED_EDGE ( 'NONE', *, *, #26, .F. ) ;
#132 = CARTESIAN_POINT ( 'NONE',  ( -8.000000000000000000, 0.000000000000000000, 5.000000000000000000 ) ) ;
#133 = ORIENTED_EDGE ( 'NONE', *, *, #51, .T. ) ;
#134 = DIRECTION ( 'NONE',  ( 0.000000000000000000, 0.000000000000000000, 1.000000000000000000 ) ) ;
#135 = CARTESIAN_POINT ( 'NONE',  ( 8.000000000000000000, 9.797174393178825657E-16, 5.000000000000000000 ) ) ;
#136 =( GEOMETRIC_REPRESENTATION_CONTEXT ( 3 ) GLOBAL_UNCERTAINTY_ASSIGNED_CONTEXT ( ( #214 ) ) GLOBAL_UNIT_ASSIGNED_CONTEXT ( ( #142, #257, #259 ) ) REPRESENTATION_CONTEXT ( 'NONE', 'WORKASPACE' ) );
#137 = ADVANCED_FACE ( 'NONE', ( #268 ), #102, .T. ) ;
#138 = EDGE_LOOP ( 'NONE', ( #81, #131, #115, #201 ) ) ;
#139 = PRODUCT ( '3ad2', '3ad2', '', ( #92 ) ) ;
#140 = CARTESIAN_POINT ( 'NONE',  ( 0.000000000000000000, 0.000000000000000000, 5.000000000000000000 ) ) ;
#141 = DIRECTION ( 'NONE',  ( -0.000000000000000000, -0.000000000000000000, -1.000000000000000000 ) ) ;
#142 =( LENGTH_UNIT ( ) NAMED_UNIT ( * ) SI_UNIT ( .MILLI., .METRE. ) );
#143 = DIRECTION ( 'NONE',  ( 1.224646799147353207E-16, 1.000000000000000000, -0.000000000000000000 ) ) ;
#144 = APPROVAL_DATE_TIME ( #78, #7 ) ;
#145 = CARTESIAN_POINT ( 'NONE',  ( 0.000000000000000000, 0.000000000000000000, 165.0000000000000000 ) ) ;
#146 = PERSON_AND_ORGANIZATION ( #287, #93 ) ;
#147 = DIRECTION ( 'NONE',  ( 0.000000000000000000, 0.000000000000000000, -1.000000000000000000 ) ) ;
#148 = EDGE_CURVE ( 'NONE', #112, #300, #204, .T. ) ;
#149 = APPROVAL_STATUS ( 'not_yet_approved' ) ;
#150 = CARTESIAN_POINT ( 'NONE',  ( 0.000000000000000000, 0.000000000000000000, 165.0000000000000000 ) ) ;
#151 = AXIS2_PLACEMENT_3D ( 'NONE', #178, #251, #230 ) ;
#152 = DIRECTION ( 'NONE',  ( 1.000000000000000000, 0.000000000000000000, 0.000000000000000000 ) ) ;
#153 = DIRECTION ( 'NONE',  ( 0.000000000000000000, 0.000000000000000000, 1.000000000000000000 ) ) ;
#154 = ORIENTED_EDGE ( 'NONE', *, *, #211, .T. ) ;
#155 = DIRECTION ( 'NONE',  ( 1.000000000000000000, 0.000000000000000000, 0.000000000000000000 ) ) ;
#156 = PLANE ( 'NONE',  #217 ) ;
#157 = DIRECTION ( 'NONE',  ( -1.000000000000000000, 0.000000000000000000, 0.000000000000000000 ) ) ;
#158 = ORIENTED_EDGE ( 'NONE', *, *, #26, .T. ) ;
#159 = ORIENTED_EDGE ( 'NONE', *, *, #121, .F. ) ;
#160 = FACE_OUTER_BOUND ( 'NONE', #87, .T. ) ;
#161 = LOCAL_TIME ( 11, 36, 5.000000000000000000, #127 ) ;
#162 = DIRECTION ( 'NONE',  ( -1.000000000000000000, 1.224646799147353454E-16, 0.000000000000000000 ) ) ;
#163 = AXIS2_PLACEMENT_3D ( 'NONE', #68, #209, #94 ) ;
#164 = EDGE_CURVE ( 'NONE', #73, #60, #269, .T. ) ;
#165 = AXIS2_PLACEMENT_3D ( 'NONE', #61, #176, #157 ) ;
#166 = ORIENTED_EDGE ( 'NONE', *, *, #148, .F. ) ;
#167 = PERSON_AND_ORGANIZATION_ROLE ( 'design_owner' ) ;
#168 = CARTESIAN_POINT ( 'NONE',  ( -5.699999999999999289, 6.980486755139912122E-16, 5.000000000000005329 ) ) ;
#169 = APPROVAL_STATUS ( 'not_yet_approved' ) ;
#170 = PERSON_AND_ORGANIZATION ( #287, #93 ) ;
#171 = AXIS2_PLACEMENT_3D ( 'NONE', #223, #153, #248 ) ;
#172 = PERSON_AND_ORGANIZATION ( #287, #93 ) ;
#173 = CALENDAR_DATE ( 2022, 20, 6 ) ;
#174 = DIRECTION ( 'NONE',  ( -1.000000000000000000, 0.000000000000000000, 0.000000000000000000 ) ) ;
#175 = VERTEX_POINT ( 'NONE', #101 ) ;
#176 = DIRECTION ( 'NONE',  ( -0.000000000000000000, -0.000000000000000000, -1.000000000000000000 ) ) ;
#177 = DIRECTION ( 'NONE',  ( 0.000000000000000000, 0.000000000000000000, 1.000000000000000000 ) ) ;
#178 = CARTESIAN_POINT ( 'NONE',  ( 0.000000000000000000, 0.000000000000000000, 5.000000000000000000 ) ) ;
#179 = EDGE_LOOP ( 'NONE', ( #88, #182, #83, #229 ) ) ;
#180 = AXIS2_PLACEMENT_3D ( 'NONE', #42, #302, #155 ) ;
#181 = FACE_OUTER_BOUND ( 'NONE', #179, .T. ) ;
#182 = ORIENTED_EDGE ( 'NONE', *, *, #111, .T. ) ;
#183 = CARTESIAN_POINT ( 'NONE',  ( 0.000000000000000000, 0.000000000000000000, 0.000000000000000000 ) ) ;
#184 = EDGE_LOOP ( 'NONE', ( #158, #278 ) ) ;
#185 = AXIS2_PLACEMENT_3D ( 'NONE', #235, #141, #22 ) ;
#186 = AXIS2_PLACEMENT_3D ( 'NONE', #279, #58, #109 ) ;
#187 = FACE_OUTER_BOUND ( 'NONE', #21, .T. ) ;
#188 = ADVANCED_FACE ( 'NONE', ( #31 ), #107, .F. ) ;
#189 = DIRECTION ( 'NONE',  ( 0.000000000000000000, 0.000000000000000000, 1.000000000000000000 ) ) ;
#190 = VECTOR ( 'NONE', #13, 1000.000000000000000 ) ;
#191 = APPROVAL ( #149, 'NEURÈENÝ' ) ;
#192 = AXIS2_PLACEMENT_3D ( 'NONE', #24, #282, #70 ) ;
#193 = LOCAL_TIME ( 11, 36, 5.000000000000000000, #54 ) ;
#194 = COORDINATED_UNIVERSAL_TIME_OFFSET ( 1, 0, .AHEAD. ) ;
#195 = DATE_TIME_ROLE ( 'creation_date' ) ;
#196 = DIRECTION ( 'NONE',  ( 0.000000000000000000, 0.000000000000000000, 1.000000000000000000 ) ) ;
#197 = CIRCLE ( 'NONE', #65, 8.000000000000000000 ) ;
#198 = EDGE_LOOP ( 'NONE', ( #305, #285, #15, #166 ) ) ;
#199 = EDGE_CURVE ( 'NONE', #274, #73, #5, .T. ) ;
#200 = FACE_OUTER_BOUND ( 'NONE', #184, .T. ) ;
#201 = ORIENTED_EDGE ( 'NONE', *, *, #164, .T. ) ;
#202 = ORIENTED_EDGE ( 'NONE', *, *, #90, .T. ) ;
#203 = CIRCLE ( 'NONE', #25, 5.699999999999999289 ) ;
#204 = CIRCLE ( 'NONE', #114, 5.699999999999999289 ) ;
#205 = ORIENTED_EDGE ( 'NONE', *, *, #262, .F. ) ;
#206 = DIRECTION ( 'NONE',  ( 1.000000000000000000, 0.000000000000000000, 0.000000000000000000 ) ) ;
#207 = LINE ( 'NONE', #2, #96 ) ;
#208 = APPLICATION_CONTEXT ( 'configuration controlled 3d designs of mechanical parts and assemblies' ) ;
#209 = DIRECTION ( 'NONE',  ( 0.000000000000000000, 0.000000000000000000, 1.000000000000000000 ) ) ;
#210 = CC_DESIGN_APPROVAL ( #191, ( #291 ) ) ;
#211 = EDGE_CURVE ( 'NONE', #307, #122, #284, .T. ) ;
#212 = CC_DESIGN_PERSON_AND_ORGANIZATION_ASSIGNMENT ( #172, #6, ( #291 ) ) ;
#213 = CARTESIAN_POINT ( 'NONE',  ( 5.500000000000000000, 6.735557395310442023E-16, 165.0000000000000000 ) ) ;
#214 = UNCERTAINTY_MEASURE_WITH_UNIT (LENGTH_MEASURE( 1.000000000000000082E-05 ), #142, 'distance_accuracy_value', 'NONE');
#215 = DATE_AND_TIME ( #74, #161 ) ;
#216 = CARTESIAN_POINT ( 'NONE',  ( -8.000000000000000000, 0.000000000000000000, 5.000000000000000000 ) ) ;
#217 = AXIS2_PLACEMENT_3D ( 'NONE', #253, #227, #266 ) ;
#218 = ADVANCED_FACE ( 'NONE', ( #181 ), #304, .F. ) ;
#219 = PERSON_AND_ORGANIZATION ( #287, #93 ) ;
#220 = APPROVAL_PERSON_ORGANIZATION ( #146, #7, #294 ) ;
#221 = PERSON_AND_ORGANIZATION ( #287, #93 ) ;
#222 = CARTESIAN_POINT ( 'NONE',  ( 5.500000000000000000, 6.735557395310442023E-16, 5.200000000000009948 ) ) ;
#223 = CARTESIAN_POINT ( 'NONE',  ( 0.000000000000000000, 0.000000000000000000, 5.200000000000009948 ) ) ;
#224 = DIRECTION ( 'NONE',  ( -0.000000000000000000, -0.000000000000000000, -1.000000000000000000 ) ) ;
#225 = ORIENTED_EDGE ( 'NONE', *, *, #121, .T. ) ;
#226 = LINE ( 'NONE', #135, #190 ) ;
#227 = DIRECTION ( 'NONE',  ( 0.000000000000000000, 0.000000000000000000, 1.000000000000000000 ) ) ;
#228 = DIRECTION ( 'NONE',  ( 1.000000000000000000, 0.000000000000000000, 0.000000000000000000 ) ) ;
#229 = ORIENTED_EDGE ( 'NONE', *, *, #126, .F. ) ;
#230 = DIRECTION ( 'NONE',  ( 1.000000000000000000, 0.000000000000000000, -0.000000000000000000 ) ) ;
#231 = ORIENTED_EDGE ( 'NONE', *, *, #262, .T. ) ;
#232 = LOCAL_TIME ( 11, 36, 5.000000000000000000, #194 ) ;
#233 = CARTESIAN_POINT ( 'NONE',  ( 0.000000000000000000, 0.000000000000000000, 0.000000000000000000 ) ) ;
#234 = ADVANCED_FACE ( 'NONE', ( #66 ), #306, .F. ) ;
#235 = CARTESIAN_POINT ( 'NONE',  ( 0.000000000000000000, 0.000000000000000000, 5.000000000000000000 ) ) ;
#236 = CC_DESIGN_SECURITY_CLASSIFICATION ( #124, ( #291 ) ) ;
#237 = CARTESIAN_POINT ( 'NONE',  ( 0.000000000000000000, 0.000000000000000000, 0.000000000000000000 ) ) ;
#238 = CC_DESIGN_PERSON_AND_ORGANIZATION_ASSIGNMENT ( #219, #167, ( #139 ) ) ;
#239 = APPROVAL_DATE_TIME ( #215, #130 ) ;
#240 = DIRECTION ( 'NONE',  ( -0.000000000000000000, -0.000000000000000000, -1.000000000000000000 ) ) ;
#241 = APPROVAL_PERSON_ORGANIZATION ( #170, #130, #30 ) ;
#242 = CARTESIAN_POINT ( 'NONE',  ( 0.000000000000000000, 0.000000000000000000, 5.200000000000009948 ) ) ;
#243 = CIRCLE ( 'NONE', #163, 5.500000000000000000 ) ;
#244 = DIRECTION ( 'NONE',  ( 1.000000000000000000, 0.000000000000000000, 0.000000000000000000 ) ) ;
#245 = CC_DESIGN_PERSON_AND_ORGANIZATION_ASSIGNMENT ( #221, #76, ( #124 ) ) ;
#246 = PERSON_AND_ORGANIZATION ( #287, #93 ) ;
#247 = FACE_OUTER_BOUND ( 'NONE', #138, .T. ) ;
#248 = DIRECTION ( 'NONE',  ( 1.000000000000000000, 0.000000000000000000, 0.000000000000000000 ) ) ;
#249 = CLOSED_SHELL ( 'NONE', ( #218, #137, #95, #301, #296, #234, #117, #36, #188 ) ) ;
#250 = EDGE_LOOP ( 'NONE', ( #303, #205, #225, #154 ) ) ;
#251 = DIRECTION ( 'NONE',  ( 0.000000000000000000, 0.000000000000000000, 1.000000000000000000 ) ) ;
#252 = AXIS2_PLACEMENT_3D ( 'NONE', #183, #134, #255 ) ;
#253 = CARTESIAN_POINT ( 'NONE',  ( 0.000000000000000000, 0.000000000000000000, 165.0000000000000000 ) ) ;
#254 = ORIENTED_EDGE ( 'NONE', *, *, #39, .F. ) ;
#255 = DIRECTION ( 'NONE',  ( 1.000000000000000000, 0.000000000000000000, -0.000000000000000000 ) ) ;
#256 = CARTESIAN_POINT ( 'NONE',  ( 0.000000000000000000, 0.000000000000000000, 5.000000000000000000 ) ) ;
#257 =( NAMED_UNIT ( * ) PLANE_ANGLE_UNIT ( ) SI_UNIT ( $, .RADIAN. ) );
#258 = CARTESIAN_POINT ( 'NONE',  ( -5.500000000000000000, 0.000000000000000000, 165.0000000000000000 ) ) ;
#259 =( NAMED_UNIT ( * ) SI_UNIT ( $, .STERADIAN. ) SOLID_ANGLE_UNIT ( ) );
#260 = PRODUCT_DEFINITION_SHAPE ( 'NONE', 'NONE',  #55 ) ;
#261 = CARTESIAN_POINT ( 'NONE',  ( 8.000000000000000000, 9.797174393178825657E-16, 0.000000000000000000 ) ) ;
#262 = EDGE_CURVE ( 'NONE', #18, #175, #17, .T. ) ;
#263 = AXIS2_PLACEMENT_3D ( 'NONE', #242, #290, #33 ) ;
#264 = DIRECTION ( 'NONE',  ( 1.000000000000000000, 0.000000000000000000, 0.000000000000000000 ) ) ;
#265 = ORIENTED_EDGE ( 'NONE', *, *, #86, .T. ) ;
#266 = DIRECTION ( 'NONE',  ( 1.000000000000000000, 0.000000000000000000, -0.000000000000000000 ) ) ;
#267 = CIRCLE ( 'NONE', #103, 8.000000000000000000 ) ;
#268 = FACE_OUTER_BOUND ( 'NONE', #16, .T. ) ;
#269 = CIRCLE ( 'NONE', #77, 8.000000000000000000 ) ;
#270 = COORDINATED_UNIVERSAL_TIME_OFFSET ( 1, 0, .AHEAD. ) ;
#271 = PERSON_AND_ORGANIZATION_ROLE ( 'creator' ) ;
#272 = CARTESIAN_POINT ( 'NONE',  ( 0.000000000000000000, 0.000000000000000000, 5.000000000000000000 ) ) ;
#273 = CARTESIAN_POINT ( 'NONE',  ( 0.000000000000000000, 0.000000000000000000, 0.000000000000000000 ) ) ;
#274 = VERTEX_POINT ( 'NONE', #132 ) ;
#275 = DIRECTION ( 'NONE',  ( 1.000000000000000000, 0.000000000000000000, 0.000000000000000000 ) ) ;
#276 = EDGE_CURVE ( 'NONE', #300, #112, #203, .T. ) ;
#277 = ORIENTED_EDGE ( 'NONE', *, *, #288, .T. ) ;
#278 = ORIENTED_EDGE ( 'NONE', *, *, #39, .T. ) ;
#279 = CARTESIAN_POINT ( 'NONE',  ( 0.000000000000000000, 0.000000000000000000, 5.200000000000009948 ) ) ;
#280 = ORIENTED_EDGE ( 'NONE', *, *, #164, .F. ) ;
#281 = APPLICATION_PROTOCOL_DEFINITION ( 'international standard', 'config_control_design', 1994, #91 ) ;
#282 = DIRECTION ( 'NONE',  ( 0.000000000000000000, 0.000000000000000000, 1.000000000000000000 ) ) ;
#283 = CARTESIAN_POINT ( 'NONE',  ( -8.000000000000000000, 0.000000000000000000, 0.000000000000000000 ) ) ;
#284 = CIRCLE ( 'NONE', #186, 5.500000000000000000 ) ;
#285 = ORIENTED_EDGE ( 'NONE', *, *, #86, .F. ) ;
#286 = AXIS2_PLACEMENT_3D ( 'NONE', #295, #128, #147 ) ;
#287 = PERSON ( 'NEURÈENÝ', 'NEURÈENÝ', 'NEURÈENÝ', ('NEURÈENÝ'), ('NEURÈENÝ'), ('NEURÈENÝ') ) ;
#288 = EDGE_CURVE ( 'NONE', #50, #60, #226, .T. ) ;
#289 = DATE_AND_TIME ( #292, #232 ) ;
#290 = DIRECTION ( 'NONE',  ( 0.000000000000000000, 0.000000000000000000, 1.000000000000000000 ) ) ;
#291 = PRODUCT_DEFINITION_FORMATION_WITH_SPECIFIED_SOURCE ( 'LIBOVOLNÝ', '', #139, .NOT_KNOWN. ) ;
#292 = CALENDAR_DATE ( 2022, 20, 6 ) ;
#293 = DIRECTION ( 'NONE',  ( -0.000000000000000000, -0.000000000000000000, -1.000000000000000000 ) ) ;
#294 = APPROVAL_ROLE ( '' ) ;
#295 = CARTESIAN_POINT ( 'NONE',  ( 5.699999999999999289, 0.000000000000000000, 5.200000000000009948 ) ) ;
#296 = ADVANCED_FACE ( 'NONE', ( #108, #200 ), #82, .T. ) ;
#297 = CIRCLE ( 'NONE', #29, 8.000000000000000000 ) ;
#298 = ORIENTED_EDGE ( 'NONE', *, *, #51, .F. ) ;
#299 = CARTESIAN_POINT ( 'NONE',  ( 5.699999999999999289, 0.000000000000000000, 5.000000000000005329 ) ) ;
#300 = VERTEX_POINT ( 'NONE', #299 ) ;
#301 = ADVANCED_FACE ( 'NONE', ( #247 ), #113, .T. ) ;
#302 = DIRECTION ( 'NONE',  ( 0.000000000000000000, 0.000000000000000000, 1.000000000000000000 ) ) ;
#303 = ORIENTED_EDGE ( 'NONE', *, *, #90, .F. ) ;
#304 = TOROIDAL_SURFACE ( 'NONE', #171, 5.699999999999999289, 0.2000000000000000111 ) ;
#305 = ORIENTED_EDGE ( 'NONE', *, *, #111, .F. ) ;
#306 = PLANE ( 'NONE',  #252 ) ;
#307 = VERTEX_POINT ( 'NONE', #38 ) ;
ENDSEC;
END-ISO-10303-21;
