ISO-10303-21;
HEADER;
FILE_DESCRIPTION (( 'STEP AP203' ),
    '1' );
FILE_NAME ('15f3.STEP',
    '2022-06-20T09:22:03',
    ( '' ),
    ( '' ),
    'SwSTEP 2.0',
    'SolidWorks 2019',
    '' );
FILE_SCHEMA (( 'CONFIG_CONTROL_DESIGN' ));
ENDSEC;

DATA;
#1 = VERTEX_POINT ( 'NONE', #188 ) ;
#2 = DIRECTION ( 'NONE',  ( 0.000000000000000000, 0.000000000000000000, 1.000000000000000000 ) ) ;
#3 = VERTEX_POINT ( 'NONE', #82 ) ;
#4 = CIRCLE ( 'NONE', #244, 12.00000000000000178 ) ;
#5 = DIRECTION ( 'NONE',  ( 1.000000000000000000, 0.000000000000000000, 0.000000000000000000 ) ) ;
#6 = ORIENTED_EDGE ( 'NONE', *, *, #79, .T. ) ;
#7 = AXIS2_PLACEMENT_3D ( 'NONE', #172, #31, #131 ) ;
#8 = ORIENTED_EDGE ( 'NONE', *, *, #181, .F. ) ;
#9 = CC_DESIGN_DATE_AND_TIME_ASSIGNMENT ( #307, #269, ( #247 ) ) ;
#10 = APPROVAL_ROLE ( '' ) ;
#11 = PERSON_AND_ORGANIZATION ( #245, #201 ) ;
#12 = ORIENTED_EDGE ( 'NONE', *, *, #278, .T. ) ;
#13 = DIRECTION ( 'NONE',  ( 1.000000000000000000, 0.000000000000000000, 0.000000000000000000 ) ) ;
#14 = CALENDAR_DATE ( 2022, 20, 6 ) ;
#15 = EDGE_CURVE ( 'NONE', #132, #125, #130, .T. ) ;
#16 = UNCERTAINTY_MEASURE_WITH_UNIT (LENGTH_MEASURE( 1.000000000000000082E-05 ), #145, 'distance_accuracy_value', 'NONE');
#17 = DIRECTION ( 'NONE',  ( 1.000000000000000000, 0.000000000000000000, 0.000000000000000000 ) ) ;
#18 = EDGE_LOOP ( 'NONE', ( #52, #216, #53, #103 ) ) ;
#19 = APPROVAL_PERSON_ORGANIZATION ( #56, #304, #10 ) ;
#20 = FACE_OUTER_BOUND ( 'NONE', #18, .T. ) ;
#21 = DIRECTION ( 'NONE',  ( 1.000000000000000000, 0.000000000000000000, 0.000000000000000000 ) ) ;
#22 = CARTESIAN_POINT ( 'NONE',  ( -9.000000000000000000, 0.000000000000000000, 322.0000000000000000 ) ) ;
#23 = SECURITY_CLASSIFICATION_LEVEL ( 'unclassified' ) ;
#24 = CARTESIAN_POINT ( 'NONE',  ( 0.000000000000000000, 0.000000000000000000, 322.0000000000000000 ) ) ;
#25 = EDGE_CURVE ( 'NONE', #125, #132, #195, .T. ) ;
#26 = DIRECTION ( 'NONE',  ( -0.000000000000000000, -0.000000000000000000, -1.000000000000000000 ) ) ;
#27 = DIRECTION ( 'NONE',  ( 1.000000000000000000, 0.000000000000000000, 0.000000000000000000 ) ) ;
#28 = AXIS2_PLACEMENT_3D ( 'NONE', #128, #2, #5 ) ;
#29 = VERTEX_POINT ( 'NONE', #229 ) ;
#30 = ORIENTED_EDGE ( 'NONE', *, *, #171, .F. ) ;
#31 = DIRECTION ( 'NONE',  ( -0.000000000000000000, -0.000000000000000000, -1.000000000000000000 ) ) ;
#32 = VERTEX_POINT ( 'NONE', #57 ) ;
#33 = EDGE_LOOP ( 'NONE', ( #175, #285 ) ) ;
#34 = ORIENTED_EDGE ( 'NONE', *, *, #37, .F. ) ;
#35 = COORDINATED_UNIVERSAL_TIME_OFFSET ( 1, 0, .AHEAD. ) ;
#36 = ORIENTED_EDGE ( 'NONE', *, *, #15, .T. ) ;
#37 = EDGE_CURVE ( 'NONE', #132, #3, #156, .T. ) ;
#38 = PERSON_AND_ORGANIZATION_ROLE ( 'creator' ) ;
#39 = AXIS2_PLACEMENT_3D ( 'NONE', #115, #98, #49 ) ;
#40 = CARTESIAN_POINT ( 'NONE',  ( 0.000000000000000000, 0.000000000000000000, 322.0000000000000000 ) ) ;
#41 = DIRECTION ( 'NONE',  ( -1.000000000000000000, 0.000000000000000000, 0.000000000000000000 ) ) ;
#42 = PRODUCT_DEFINITION_FORMATION_WITH_SPECIFIED_SOURCE ( 'LIBOVOLNÝ', '', #105, .NOT_KNOWN. ) ;
#43 = CARTESIAN_POINT ( 'NONE',  ( 0.000000000000000000, 0.000000000000000000, 7.000000000000000000 ) ) ;
#44 = CARTESIAN_POINT ( 'NONE',  ( 9.000000000000000000, 1.102182119232617714E-15, 322.0000000000000000 ) ) ;
#45 = DIRECTION ( 'NONE',  ( 1.000000000000000000, 0.000000000000000000, 0.000000000000000000 ) ) ;
#46 = TOROIDAL_SURFACE ( 'NONE', #90, 9.199999999999999289, 0.2000000000000000111 ) ;
#47 = TOROIDAL_SURFACE ( 'NONE', #28, 9.199999999999999289, 0.2000000000000000111 ) ;
#48 = CARTESIAN_POINT ( 'NONE',  ( 0.000000000000000000, 0.000000000000000000, 0.000000000000000000 ) ) ;
#49 = DIRECTION ( 'NONE',  ( -1.000000000000000000, 1.224646799147353207E-16, 0.000000000000000000 ) ) ;
#50 = ORIENTED_EDGE ( 'NONE', *, *, #79, .F. ) ;
#51 = VECTOR ( 'NONE', #261, 1000.000000000000000 ) ;
#52 = ORIENTED_EDGE ( 'NONE', *, *, #101, .F. ) ;
#53 = ORIENTED_EDGE ( 'NONE', *, *, #116, .T. ) ;
#54 = ORIENTED_EDGE ( 'NONE', *, *, #126, .T. ) ;
#55 = CC_DESIGN_DATE_AND_TIME_ASSIGNMENT ( #134, #89, ( #93 ) ) ;
#56 = PERSON_AND_ORGANIZATION ( #245, #201 ) ;
#57 = CARTESIAN_POINT ( 'NONE',  ( -9.199999999999999289, 1.126675055215564822E-15, 6.999999999999992006 ) ) ;
#58 = ADVANCED_FACE ( 'NONE', ( #274 ), #158, .T. ) ;
#59 = DATE_AND_TIME ( #180, #92 ) ;
#60 = CARTESIAN_POINT ( 'NONE',  ( 0.000000000000000000, 0.000000000000000000, 0.000000000000000000 ) ) ;
#61 = ORIENTED_EDGE ( 'NONE', *, *, #139, .T. ) ;
#62 = PERSON_AND_ORGANIZATION ( #245, #201 ) ;
#63 = APPROVAL_PERSON_ORGANIZATION ( #224, #133, #85 ) ;
#64 = PERSON_AND_ORGANIZATION ( #245, #201 ) ;
#65 = DIRECTION ( 'NONE',  ( 0.000000000000000000, 0.000000000000000000, 1.000000000000000000 ) ) ;
#66 = ADVANCED_FACE ( 'NONE', ( #136 ), #186, .T. ) ;
#67 = DIRECTION ( 'NONE',  ( 0.000000000000000000, 0.000000000000000000, 1.000000000000000000 ) ) ;
#68 = VECTOR ( 'NONE', #183, 1000.000000000000000 ) ;
#69 = LINE ( 'NONE', #259, #279 ) ;
#70 = CYLINDRICAL_SURFACE ( 'NONE', #204, 9.000000000000000000 ) ;
#71 = DIRECTION ( 'NONE',  ( 1.000000000000000000, 0.000000000000000000, 0.000000000000000000 ) ) ;
#72 = CARTESIAN_POINT ( 'NONE',  ( -12.00000000000000178, 0.000000000000000000, 7.000000000000000000 ) ) ;
#73 = EDGE_CURVE ( 'NONE', #78, #159, #81, .T. ) ;
#74 = ORIENTED_EDGE ( 'NONE', *, *, #193, .T. ) ;
#75 = DIRECTION ( 'NONE',  ( 1.000000000000000000, 0.000000000000000000, -0.000000000000000000 ) ) ;
#76 = AXIS2_PLACEMENT_3D ( 'NONE', #166, #120, #209 ) ;
#77 = ORIENTED_EDGE ( 'NONE', *, *, #171, .T. ) ;
#78 = VERTEX_POINT ( 'NONE', #72 ) ;
#79 = EDGE_CURVE ( 'NONE', #150, #32, #291, .T. ) ;
#80 = DIRECTION ( 'NONE',  ( 0.000000000000000000, 0.000000000000000000, 1.000000000000000000 ) ) ;
#81 = CIRCLE ( 'NONE', #123, 12.00000000000000178 ) ;
#82 = CARTESIAN_POINT ( 'NONE',  ( 9.000000000000000000, 1.102182119232617714E-15, 7.199999999999984190 ) ) ;
#83 = ORIENTED_EDGE ( 'NONE', *, *, #15, .F. ) ;
#84 = APPROVAL_STATUS ( 'not_yet_approved' ) ;
#85 = APPROVAL_ROLE ( '' ) ;
#86 = APPLICATION_CONTEXT ( 'configuration controlled 3d designs of mechanical parts and assemblies' ) ;
#87 = APPROVAL_DATE_TIME ( #294, #107 ) ;
#88 = CARTESIAN_POINT ( 'NONE',  ( 9.000000000000000000, 1.102182119232617714E-15, 322.0000000000000000 ) ) ;
#89 = DATE_TIME_ROLE ( 'creation_date' ) ;
#90 = AXIS2_PLACEMENT_3D ( 'NONE', #298, #67, #21 ) ;
#91 = CARTESIAN_POINT ( 'NONE',  ( 0.000000000000000000, 0.000000000000000000, 322.0000000000000000 ) ) ;
#92 = LOCAL_TIME ( 11, 22, 3.000000000000000000, #35 ) ;
#93 = PRODUCT_DEFINITION ( 'NEZNÁMÝ', '', #42, #178 ) ;
#94 = DIRECTION ( 'NONE',  ( -0.000000000000000000, -0.000000000000000000, -1.000000000000000000 ) ) ;
#95 = LINE ( 'NONE', #211, #147 ) ;
#96 = ADVANCED_FACE ( 'NONE', ( #206 ), #70, .T. ) ;
#97 = CYLINDRICAL_SURFACE ( 'NONE', #217, 12.00000000000000178 ) ;
#98 = DIRECTION ( 'NONE',  ( 1.224646799147353207E-16, 1.000000000000000000, -0.000000000000000000 ) ) ;
#99 = DIRECTION ( 'NONE',  ( -1.000000000000000000, 0.000000000000000000, 0.000000000000000000 ) ) ;
#100 = AXIS2_PLACEMENT_3D ( 'NONE', #40, #65, #203 ) ;
#101 = EDGE_CURVE ( 'NONE', #159, #78, #262, .T. ) ;
#102 = EDGE_LOOP ( 'NONE', ( #146, #221 ) ) ;
#103 = ORIENTED_EDGE ( 'NONE', *, *, #139, .F. ) ;
#104 = ORIENTED_EDGE ( 'NONE', *, *, #37, .T. ) ;
#105 = PRODUCT ( '15f3', '15f3', '', ( #253 ) ) ;
#106 = LOCAL_TIME ( 11, 22, 3.000000000000000000, #272 ) ;
#107 = APPROVAL ( #276, 'NEURÈENÝ' ) ;
#108 = CALENDAR_DATE ( 2022, 20, 6 ) ;
#109 = APPROVAL_DATE_TIME ( #295, #133 ) ;
#110 = APPROVAL_STATUS ( 'not_yet_approved' ) ;
#111 = PERSON_AND_ORGANIZATION ( #245, #201 ) ;
#112 = EDGE_CURVE ( 'NONE', #159, #1, #69, .T. ) ;
#113 = APPROVAL_DATE_TIME ( #59, #304 ) ;
#114 = APPLICATION_PROTOCOL_DEFINITION ( 'international standard', 'config_control_design', 1994, #86 ) ;
#115 = CARTESIAN_POINT ( 'NONE',  ( -9.199999999999999289, 1.126675055215564822E-15, 7.199999999999984190 ) ) ;
#116 = EDGE_CURVE ( 'NONE', #1, #251, #200, .T. ) ;
#117 = CARTESIAN_POINT ( 'NONE',  ( 9.199999999999999289, 0.000000000000000000, 7.199999999999984190 ) ) ;
#118 = DIRECTION ( 'NONE',  ( -0.000000000000000000, -0.000000000000000000, -1.000000000000000000 ) ) ;
#119 = CIRCLE ( 'NONE', #287, 0.1999999999999996503 ) ;
#120 = DIRECTION ( 'NONE',  ( 0.000000000000000000, 0.000000000000000000, 1.000000000000000000 ) ) ;
#121 = DIRECTION ( 'NONE',  ( 0.000000000000000000, 0.000000000000000000, 1.000000000000000000 ) ) ;
#122 = CC_DESIGN_PERSON_AND_ORGANIZATION_ASSIGNMENT ( #62, #256, ( #42 ) ) ;
#123 = AXIS2_PLACEMENT_3D ( 'NONE', #137, #121, #144 ) ;
#124 = EDGE_LOOP ( 'NONE', ( #8, #6, #270, #202 ) ) ;
#125 = VERTEX_POINT ( 'NONE', #167 ) ;
#126 = EDGE_CURVE ( 'NONE', #251, #1, #4, .T. ) ;
#127 = ORIENTED_EDGE ( 'NONE', *, *, #112, .F. ) ;
#128 = CARTESIAN_POINT ( 'NONE',  ( 0.000000000000000000, 0.000000000000000000, 7.199999999999984190 ) ) ;
#129 = ORIENTED_EDGE ( 'NONE', *, *, #236, .F. ) ;
#130 = CIRCLE ( 'NONE', #173, 9.000000000000000000 ) ;
#131 = DIRECTION ( 'NONE',  ( 1.000000000000000000, 0.000000000000000000, 0.000000000000000000 ) ) ;
#132 = VERTEX_POINT ( 'NONE', #44 ) ;
#133 = APPROVAL ( #110, 'NEURÈENÝ' ) ;
#134 = DATE_AND_TIME ( #108, #225 ) ;
#135 =( NAMED_UNIT ( * ) SI_UNIT ( $, .STERADIAN. ) SOLID_ANGLE_UNIT ( ) );
#136 = FACE_OUTER_BOUND ( 'NONE', #271, .T. ) ;
#137 = CARTESIAN_POINT ( 'NONE',  ( 0.000000000000000000, 0.000000000000000000, 7.000000000000000000 ) ) ;
#138 = CLOSED_SHELL ( 'NONE', ( #223, #96, #205, #153, #218, #265, #66, #58, #275 ) ) ;
#139 = EDGE_CURVE ( 'NONE', #78, #251, #95, .T. ) ;
#140 = DIRECTION ( 'NONE',  ( 0.000000000000000000, 0.000000000000000000, 1.000000000000000000 ) ) ;
#141 = DIRECTION ( 'NONE',  ( 0.000000000000000000, 0.000000000000000000, 1.000000000000000000 ) ) ;
#142 = DIRECTION ( 'NONE',  ( -0.000000000000000000, -0.000000000000000000, -1.000000000000000000 ) ) ;
#143 = PRODUCT_DEFINITION_SHAPE ( 'NONE', 'NONE',  #93 ) ;
#144 = DIRECTION ( 'NONE',  ( 1.000000000000000000, 0.000000000000000000, 0.000000000000000000 ) ) ;
#145 =( LENGTH_UNIT ( ) NAMED_UNIT ( * ) SI_UNIT ( .MILLI., .METRE. ) );
#146 = ORIENTED_EDGE ( 'NONE', *, *, #73, .T. ) ;
#147 = VECTOR ( 'NONE', #142, 1000.000000000000000 ) ;
#148 = ORIENTED_EDGE ( 'NONE', *, *, #25, .F. ) ;
#149 = CARTESIAN_POINT ( 'NONE',  ( 0.000000000000000000, 0.000000000000000000, 0.000000000000000000 ) ) ;
#150 = VERTEX_POINT ( 'NONE', #237 ) ;
#151 = EDGE_LOOP ( 'NONE', ( #12, #77 ) ) ;
#152 = CALENDAR_DATE ( 2022, 20, 6 ) ;
#153 = ADVANCED_FACE ( 'NONE', ( #191 ), #284, .T. ) ;
#154 = EDGE_LOOP ( 'NONE', ( #288, #36 ) ) ;
#155 = APPLICATION_PROTOCOL_DEFINITION ( 'international standard', 'config_control_design', 1994, #190 ) ;
#156 = LINE ( 'NONE', #88, #68 ) ;
#157 = CARTESIAN_POINT ( 'NONE',  ( 0.000000000000000000, 0.000000000000000000, 322.0000000000000000 ) ) ;
#158 = PLANE ( 'NONE',  #100 ) ;
#159 = VERTEX_POINT ( 'NONE', #194 ) ;
#160 = PERSON_AND_ORGANIZATION ( #245, #201 ) ;
#161 = CARTESIAN_POINT ( 'NONE',  ( 0.000000000000000000, 0.000000000000000000, 322.0000000000000000 ) ) ;
#162 = CC_DESIGN_PERSON_AND_ORGANIZATION_ASSIGNMENT ( #160, #182, ( #42 ) ) ;
#163 = AXIS2_PLACEMENT_3D ( 'NONE', #43, #140, #164 ) ;
#164 = DIRECTION ( 'NONE',  ( 1.000000000000000000, 0.000000000000000000, 0.000000000000000000 ) ) ;
#165 = AXIS2_PLACEMENT_3D ( 'NONE', #207, #286, #27 ) ;
#166 = CARTESIAN_POINT ( 'NONE',  ( 0.000000000000000000, 0.000000000000000000, 0.000000000000000000 ) ) ;
#167 = CARTESIAN_POINT ( 'NONE',  ( -9.000000000000000000, 0.000000000000000000, 322.0000000000000000 ) ) ;
#168 = EDGE_CURVE ( 'NONE', #125, #150, #212, .T. ) ;
#169 = DIRECTION ( 'NONE',  ( 0.000000000000000000, 0.000000000000000000, 1.000000000000000000 ) ) ;
#170 = DIRECTION ( 'NONE',  ( -1.000000000000000000, 0.000000000000000000, 0.000000000000000000 ) ) ;
#171 = EDGE_CURVE ( 'NONE', #32, #29, #238, .T. ) ;
#172 = CARTESIAN_POINT ( 'NONE',  ( 0.000000000000000000, 0.000000000000000000, 7.000000000000000000 ) ) ;
#173 = AXIS2_PLACEMENT_3D ( 'NONE', #157, #179, #273 ) ;
#174 = CC_DESIGN_APPROVAL ( #133, ( #93 ) ) ;
#175 = ORIENTED_EDGE ( 'NONE', *, *, #126, .F. ) ;
#176 = EDGE_LOOP ( 'NONE', ( #83, #104, #222, #228 ) ) ;
#177 = AXIS2_PLACEMENT_3D ( 'NONE', #60, #227, #17 ) ;
#178 = DESIGN_CONTEXT ( 'detailed design', #86, 'design' ) ;
#179 = DIRECTION ( 'NONE',  ( 0.000000000000000000, 0.000000000000000000, 1.000000000000000000 ) ) ;
#180 = CALENDAR_DATE ( 2022, 20, 6 ) ;
#181 = EDGE_CURVE ( 'NONE', #150, #3, #208, .T. ) ;
#182 = PERSON_AND_ORGANIZATION_ROLE ( 'creator' ) ;
#183 = DIRECTION ( 'NONE',  ( -0.000000000000000000, -0.000000000000000000, -1.000000000000000000 ) ) ;
#184 = AXIS2_PLACEMENT_3D ( 'NONE', #302, #234, #170 ) ;
#185 = CIRCLE ( 'NONE', #165, 9.000000000000000000 ) ;
#186 = CYLINDRICAL_SURFACE ( 'NONE', #214, 9.000000000000000000 ) ;
#187 = COORDINATED_UNIVERSAL_TIME_OFFSET ( 1, 0, .AHEAD. ) ;
#188 = CARTESIAN_POINT ( 'NONE',  ( 12.00000000000000178, 1.469576158976824144E-15, 0.000000000000000000 ) ) ;
#189 = CARTESIAN_POINT ( 'NONE',  ( 0.000000000000000000, 0.000000000000000000, 7.199999999999984190 ) ) ;
#190 = APPLICATION_CONTEXT ( 'configuration controlled 3d designs of mechanical parts and assemblies' ) ;
#191 = FACE_OUTER_BOUND ( 'NONE', #252, .T. ) ;
#192 = FACE_BOUND ( 'NONE', #151, .T. ) ;
#193 = EDGE_CURVE ( 'NONE', #3, #29, #119, .T. ) ;
#194 = CARTESIAN_POINT ( 'NONE',  ( 12.00000000000000178, 1.469576158976824144E-15, 7.000000000000000000 ) ) ;
#195 = CIRCLE ( 'NONE', #231, 9.000000000000000000 ) ;
#196 = CC_DESIGN_APPROVAL ( #304, ( #247 ) ) ;
#197 = FACE_OUTER_BOUND ( 'NONE', #33, .T. ) ;
#198 = ORIENTED_EDGE ( 'NONE', *, *, #181, .T. ) ;
#199 = CARTESIAN_POINT ( 'NONE',  ( -12.00000000000000178, 0.000000000000000000, 0.000000000000000000 ) ) ;
#200 = CIRCLE ( 'NONE', #76, 12.00000000000000178 ) ;
#201 = ORGANIZATION ( 'NEURÈENÝ', 'NEURÈENÝ', '' ) ;
#202 = ORIENTED_EDGE ( 'NONE', *, *, #193, .F. ) ;
#203 = DIRECTION ( 'NONE',  ( 1.000000000000000000, 0.000000000000000000, -0.000000000000000000 ) ) ;
#204 = AXIS2_PLACEMENT_3D ( 'NONE', #24, #94, #99 ) ;
#205 = ADVANCED_FACE ( 'NONE', ( #20 ), #97, .T. ) ;
#206 = FACE_OUTER_BOUND ( 'NONE', #176, .T. ) ;
#207 = CARTESIAN_POINT ( 'NONE',  ( 0.000000000000000000, 0.000000000000000000, 7.199999999999984190 ) ) ;
#208 = CIRCLE ( 'NONE', #255, 9.000000000000000000 ) ;
#209 = DIRECTION ( 'NONE',  ( 1.000000000000000000, 0.000000000000000000, 0.000000000000000000 ) ) ;
#210 = PERSON_AND_ORGANIZATION ( #245, #201 ) ;
#211 = CARTESIAN_POINT ( 'NONE',  ( -12.00000000000000178, 0.000000000000000000, 7.000000000000000000 ) ) ;
#212 = LINE ( 'NONE', #22, #51 ) ;
#213 = CALENDAR_DATE ( 2022, 20, 6 ) ;
#214 = AXIS2_PLACEMENT_3D ( 'NONE', #161, #257, #41 ) ;
#215 = EDGE_LOOP ( 'NONE', ( #50, #129, #74, #30 ) ) ;
#216 = ORIENTED_EDGE ( 'NONE', *, *, #112, .T. ) ;
#217 = AXIS2_PLACEMENT_3D ( 'NONE', #241, #26, #233 ) ;
#218 = ADVANCED_FACE ( 'NONE', ( #192, #297 ), #305, .T. ) ;
#219 = AXIS2_PLACEMENT_3D ( 'NONE', #149, #80, #75 ) ;
#220 = LOCAL_TIME ( 11, 22, 3.000000000000000000, #242 ) ;
#221 = ORIENTED_EDGE ( 'NONE', *, *, #101, .T. ) ;
#222 = ORIENTED_EDGE ( 'NONE', *, *, #236, .T. ) ;
#223 = ADVANCED_FACE ( 'NONE', ( #277 ), #46, .F. ) ;
#224 = PERSON_AND_ORGANIZATION ( #245, #201 ) ;
#225 = LOCAL_TIME ( 11, 22, 3.000000000000000000, #290 ) ;
#226 = APPROVAL_ROLE ( '' ) ;
#227 = DIRECTION ( 'NONE',  ( 0.000000000000000000, 0.000000000000000000, 1.000000000000000000 ) ) ;
#228 = ORIENTED_EDGE ( 'NONE', *, *, #168, .F. ) ;
#229 = CARTESIAN_POINT ( 'NONE',  ( 9.199999999999999289, 0.000000000000000000, 6.999999999999992006 ) ) ;
#230 = CC_DESIGN_PERSON_AND_ORGANIZATION_ASSIGNMENT ( #210, #301, ( #247 ) ) ;
#231 = AXIS2_PLACEMENT_3D ( 'NONE', #91, #293, #13 ) ;
#232 = CC_DESIGN_APPROVAL ( #107, ( #42 ) ) ;
#233 = DIRECTION ( 'NONE',  ( -1.000000000000000000, 0.000000000000000000, 0.000000000000000000 ) ) ;
#234 = DIRECTION ( 'NONE',  ( -0.000000000000000000, -0.000000000000000000, -1.000000000000000000 ) ) ;
#235 = ORIENTED_EDGE ( 'NONE', *, *, #168, .T. ) ;
#236 = EDGE_CURVE ( 'NONE', #3, #150, #185, .T. ) ;
#237 = CARTESIAN_POINT ( 'NONE',  ( -9.000000000000000000, 0.000000000000000000, 7.199999999999984190 ) ) ;
#238 = CIRCLE ( 'NONE', #250, 9.199999999999999289 ) ;
#239 = DIRECTION ( 'NONE',  ( 0.000000000000000000, -1.000000000000000000, 0.000000000000000000 ) ) ;
#240 = LOCAL_TIME ( 11, 22, 3.000000000000000000, #187 ) ;
#241 = CARTESIAN_POINT ( 'NONE',  ( 0.000000000000000000, 0.000000000000000000, 7.000000000000000000 ) ) ;
#242 = COORDINATED_UNIVERSAL_TIME_OFFSET ( 1, 0, .AHEAD. ) ;
#243 = PRODUCT_RELATED_PRODUCT_CATEGORY ( 'detail', '', ( #105 ) ) ;
#244 = AXIS2_PLACEMENT_3D ( 'NONE', #48, #260, #71 ) ;
#245 = PERSON ( 'NEURÈENÝ', 'NEURÈENÝ', 'NEURÈENÝ', ('NEURÈENÝ'), ('NEURÈENÝ'), ('NEURÈENÝ') ) ;
#246 = ORIENTED_EDGE ( 'NONE', *, *, #73, .F. ) ;
#247 = SECURITY_CLASSIFICATION ( '', '', #23 ) ;
#248 = MANIFOLD_SOLID_BREP ( 'Zaoblit1', #138 ) ;
#249 = FACE_OUTER_BOUND ( 'NONE', #215, .T. ) ;
#250 = AXIS2_PLACEMENT_3D ( 'NONE', #264, #281, #45 ) ;
#251 = VERTEX_POINT ( 'NONE', #199 ) ;
#252 = EDGE_LOOP ( 'NONE', ( #127, #246, #61, #54 ) ) ;
#253 = MECHANICAL_CONTEXT ( 'NONE', #190, 'mechanical' ) ;
#254 = PERSON_AND_ORGANIZATION_ROLE ( 'design_owner' ) ;
#255 = AXIS2_PLACEMENT_3D ( 'NONE', #189, #141, #300 ) ;
#256 = PERSON_AND_ORGANIZATION_ROLE ( 'design_supplier' ) ;
#257 = DIRECTION ( 'NONE',  ( -0.000000000000000000, -0.000000000000000000, -1.000000000000000000 ) ) ;
#258 = CC_DESIGN_SECURITY_CLASSIFICATION ( #247, ( #42 ) ) ;
#259 = CARTESIAN_POINT ( 'NONE',  ( 12.00000000000000178, 1.469576158976824144E-15, 7.000000000000000000 ) ) ;
#260 = DIRECTION ( 'NONE',  ( 0.000000000000000000, 0.000000000000000000, 1.000000000000000000 ) ) ;
#261 = DIRECTION ( 'NONE',  ( -0.000000000000000000, -0.000000000000000000, -1.000000000000000000 ) ) ;
#262 = CIRCLE ( 'NONE', #163, 12.00000000000000178 ) ;
#263 = DIRECTION ( 'NONE',  ( 1.000000000000000000, 0.000000000000000000, -0.000000000000000000 ) ) ;
#264 = CARTESIAN_POINT ( 'NONE',  ( 0.000000000000000000, 0.000000000000000000, 7.000000000000000000 ) ) ;
#265 = ADVANCED_FACE ( 'NONE', ( #197 ), #268, .F. ) ;
#266 = APPROVAL_PERSON_ORGANIZATION ( #64, #107, #226 ) ;
#267 = CC_DESIGN_PERSON_AND_ORGANIZATION_ASSIGNMENT ( #111, #254, ( #105 ) ) ;
#268 = PLANE ( 'NONE',  #219 ) ;
#269 = DATE_TIME_ROLE ( 'classification_date' ) ;
#270 = ORIENTED_EDGE ( 'NONE', *, *, #278, .F. ) ;
#271 = EDGE_LOOP ( 'NONE', ( #34, #148, #235, #198 ) ) ;
#272 = COORDINATED_UNIVERSAL_TIME_OFFSET ( 1, 0, .AHEAD. ) ;
#273 = DIRECTION ( 'NONE',  ( 1.000000000000000000, 0.000000000000000000, 0.000000000000000000 ) ) ;
#274 = FACE_OUTER_BOUND ( 'NONE', #154, .T. ) ;
#275 = ADVANCED_FACE ( 'NONE', ( #249 ), #47, .F. ) ;
#276 = APPROVAL_STATUS ( 'not_yet_approved' ) ;
#277 = FACE_OUTER_BOUND ( 'NONE', #124, .T. ) ;
#278 = EDGE_CURVE ( 'NONE', #29, #32, #280, .T. ) ;
#279 = VECTOR ( 'NONE', #118, 1000.000000000000000 ) ;
#280 = CIRCLE ( 'NONE', #7, 9.199999999999999289 ) ;
#281 = DIRECTION ( 'NONE',  ( -0.000000000000000000, -0.000000000000000000, -1.000000000000000000 ) ) ;
#282 = DIRECTION ( 'NONE',  ( 0.000000000000000000, 0.000000000000000000, -1.000000000000000000 ) ) ;
#283 = CARTESIAN_POINT ( 'NONE',  ( 0.000000000000000000, 0.000000000000000000, 7.000000000000000000 ) ) ;
#284 = CYLINDRICAL_SURFACE ( 'NONE', #184, 12.00000000000000178 ) ;
#285 = ORIENTED_EDGE ( 'NONE', *, *, #116, .F. ) ;
#286 = DIRECTION ( 'NONE',  ( 0.000000000000000000, 0.000000000000000000, 1.000000000000000000 ) ) ;
#287 = AXIS2_PLACEMENT_3D ( 'NONE', #117, #239, #282 ) ;
#288 = ORIENTED_EDGE ( 'NONE', *, *, #25, .T. ) ;
#289 = CC_DESIGN_PERSON_AND_ORGANIZATION_ASSIGNMENT ( #11, #38, ( #93 ) ) ;
#290 = COORDINATED_UNIVERSAL_TIME_OFFSET ( 1, 0, .AHEAD. ) ;
#291 = CIRCLE ( 'NONE', #39, 0.2000000000000005107 ) ;
#292 =( NAMED_UNIT ( * ) PLANE_ANGLE_UNIT ( ) SI_UNIT ( $, .RADIAN. ) );
#293 = DIRECTION ( 'NONE',  ( 0.000000000000000000, 0.000000000000000000, 1.000000000000000000 ) ) ;
#294 = DATE_AND_TIME ( #14, #106 ) ;
#295 = DATE_AND_TIME ( #152, #240 ) ;
#296 = AXIS2_PLACEMENT_3D ( 'NONE', #283, #169, #263 ) ;
#297 = FACE_OUTER_BOUND ( 'NONE', #102, .T. ) ;
#298 = CARTESIAN_POINT ( 'NONE',  ( 0.000000000000000000, 0.000000000000000000, 7.199999999999984190 ) ) ;
#299 =( GEOMETRIC_REPRESENTATION_CONTEXT ( 3 ) GLOBAL_UNCERTAINTY_ASSIGNED_CONTEXT ( ( #16 ) ) GLOBAL_UNIT_ASSIGNED_CONTEXT ( ( #145, #292, #135 ) ) REPRESENTATION_CONTEXT ( 'NONE', 'WORKASPACE' ) );
#300 = DIRECTION ( 'NONE',  ( 1.000000000000000000, 0.000000000000000000, 0.000000000000000000 ) ) ;
#301 = PERSON_AND_ORGANIZATION_ROLE ( 'classification_officer' ) ;
#302 = CARTESIAN_POINT ( 'NONE',  ( 0.000000000000000000, 0.000000000000000000, 7.000000000000000000 ) ) ;
#303 = ADVANCED_BREP_SHAPE_REPRESENTATION ( '15f3', ( #248, #177 ), #299 ) ;
#304 = APPROVAL ( #84, 'NEURÈENÝ' ) ;
#305 = PLANE ( 'NONE',  #296 ) ;
#306 = SHAPE_DEFINITION_REPRESENTATION ( #143, #303 ) ;
#307 = DATE_AND_TIME ( #213, #220 ) ;
ENDSEC;
END-ISO-10303-21;
