ISO-10303-21;
HEADER;
FILE_DESCRIPTION (( 'STEP AP203' ),
    '1' );
FILE_NAME ('64c8.STEP',
    '2022-06-20T10:13:55',
    ( '' ),
    ( '' ),
    'SwSTEP 2.0',
    'SolidWorks 2019',
    '' );
FILE_SCHEMA (( 'CONFIG_CONTROL_DESIGN' ));
ENDSEC;

DATA;
#1 = DATE_TIME_ROLE ( 'creation_date' ) ;
#2 = AXIS2_PLACEMENT_3D ( 'NONE', #69, #189, #23 ) ;
#3 = PRODUCT_DEFINITION ( 'NEZNÁMÝ', '', #273, #68 ) ;
#4 = DIRECTION ( 'NONE',  ( 0.000000000000000000, 0.000000000000000000, 1.000000000000000000 ) ) ;
#5 =( NAMED_UNIT ( * ) PLANE_ANGLE_UNIT ( ) SI_UNIT ( $, .RADIAN. ) );
#6 = ADVANCED_FACE ( 'NONE', ( #201 ), #12, .T. ) ;
#7 = CARTESIAN_POINT ( 'NONE',  ( 0.000000000000000000, 0.000000000000000000, 3.000000000000000000 ) ) ;
#8 = EDGE_LOOP ( 'NONE', ( #252, #287, #268, #110 ) ) ;
#9 = DATE_TIME_ROLE ( 'classification_date' ) ;
#10 = VECTOR ( 'NONE', #224, 1000.000000000000000 ) ;
#11 = ORIENTED_EDGE ( 'NONE', *, *, #174, .F. ) ;
#12 = CYLINDRICAL_SURFACE ( 'NONE', #207, 3.000000000000000444 ) ;
#13 = AXIS2_PLACEMENT_3D ( 'NONE', #237, #72, #282 ) ;
#14 = VERTEX_POINT ( 'NONE', #64 ) ;
#15 = LOCAL_TIME ( 12, 13, 55.00000000000000000, #58 ) ;
#16 = ORIENTED_EDGE ( 'NONE', *, *, #107, .F. ) ;
#17 = CARTESIAN_POINT ( 'NONE',  ( 0.000000000000000000, 0.000000000000000000, 3.200000000000008171 ) ) ;
#18 = AXIS2_PLACEMENT_3D ( 'NONE', #90, #256, #233 ) ;
#19 = ADVANCED_FACE ( 'NONE', ( #255 ), #106, .T. ) ;
#20 = DIRECTION ( 'NONE',  ( 1.000000000000000000, 0.000000000000000000, 0.000000000000000000 ) ) ;
#21 = CARTESIAN_POINT ( 'NONE',  ( -3.000000000000000444, 0.000000000000000000, 3.000000000000000000 ) ) ;
#22 = DIRECTION ( 'NONE',  ( 1.000000000000000000, 0.000000000000000000, -0.000000000000000000 ) ) ;
#23 = DIRECTION ( 'NONE',  ( 1.000000000000000000, 0.000000000000000000, 0.000000000000000000 ) ) ;
#24 = APPROVAL ( #241, 'NEURÈENÝ' ) ;
#25 = COORDINATED_UNIVERSAL_TIME_OFFSET ( 1, 0, .AHEAD. ) ;
#26 = VECTOR ( 'NONE', #92, 1000.000000000000000 ) ;
#27 = APPROVAL_DATE_TIME ( #78, #24 ) ;
#28 =( LENGTH_UNIT ( ) NAMED_UNIT ( * ) SI_UNIT ( .MILLI., .METRE. ) );
#29 = PERSON_AND_ORGANIZATION ( #102, #290 ) ;
#30 = CALENDAR_DATE ( 2022, 20, 6 ) ;
#31 = EDGE_LOOP ( 'NONE', ( #125, #220 ) ) ;
#32 = APPLICATION_PROTOCOL_DEFINITION ( 'international standard', 'config_control_design', 1994, #193 ) ;
#33 = ADVANCED_FACE ( 'NONE', ( #158 ), #262, .F. ) ;
#34 = ORIENTED_EDGE ( 'NONE', *, *, #47, .T. ) ;
#35 = CALENDAR_DATE ( 2022, 20, 6 ) ;
#36 = CC_DESIGN_PERSON_AND_ORGANIZATION_ASSIGNMENT ( #81, #63, ( #273 ) ) ;
#37 = EDGE_LOOP ( 'NONE', ( #57, #67 ) ) ;
#38 = CIRCLE ( 'NONE', #175, 3.000000000000000444 ) ;
#39 = ORIENTED_EDGE ( 'NONE', *, *, #77, .F. ) ;
#40 = DIRECTION ( 'NONE',  ( 1.000000000000000000, 0.000000000000000000, 0.000000000000000000 ) ) ;
#41 = EDGE_LOOP ( 'NONE', ( #182, #222 ) ) ;
#42 = APPROVAL ( #170, 'NEURÈENÝ' ) ;
#43 = AXIS2_PLACEMENT_3D ( 'NONE', #230, #4, #219 ) ;
#44 = CARTESIAN_POINT ( 'NONE',  ( 0.000000000000000000, 0.000000000000000000, 0.000000000000000000 ) ) ;
#45 = DIRECTION ( 'NONE',  ( 0.000000000000000000, 0.000000000000000000, 1.000000000000000000 ) ) ;
#46 = DIRECTION ( 'NONE',  ( 0.000000000000000000, 0.000000000000000000, 1.000000000000000000 ) ) ;
#47 = EDGE_CURVE ( 'NONE', #156, #199, #198, .T. ) ;
#48 = CIRCLE ( 'NONE', #2, 1.600000000000000089 ) ;
#49 = FACE_OUTER_BOUND ( 'NONE', #31, .T. ) ;
#50 = DIRECTION ( 'NONE',  ( 1.000000000000000000, 0.000000000000000000, 0.000000000000000000 ) ) ;
#51 = CYLINDRICAL_SURFACE ( 'NONE', #70, 3.000000000000000444 ) ;
#52 = APPROVAL_ROLE ( '' ) ;
#53 = VERTEX_POINT ( 'NONE', #152 ) ;
#54 = EDGE_CURVE ( 'NONE', #199, #14, #136, .T. ) ;
#55 = LOCAL_TIME ( 12, 13, 55.00000000000000000, #181 ) ;
#56 = CIRCLE ( 'NONE', #94, 3.000000000000000444 ) ;
#57 = ORIENTED_EDGE ( 'NONE', *, *, #240, .F. ) ;
#58 = COORDINATED_UNIVERSAL_TIME_OFFSET ( 1, 0, .AHEAD. ) ;
#59 = APPROVAL_STATUS ( 'not_yet_approved' ) ;
#60 = DIRECTION ( 'NONE',  ( -1.000000000000000000, 0.000000000000000000, 0.000000000000000000 ) ) ;
#61 = EDGE_CURVE ( 'NONE', #14, #129, #298, .T. ) ;
#62 = ORIENTED_EDGE ( 'NONE', *, *, #248, .T. ) ;
#63 = PERSON_AND_ORGANIZATION_ROLE ( 'creator' ) ;
#64 = CARTESIAN_POINT ( 'NONE',  ( 1.600000000000000089, 1.959434878635765230E-16, 3.200000000000008171 ) ) ;
#65 = CIRCLE ( 'NONE', #114, 1.600000000000000089 ) ;
#66 = CARTESIAN_POINT ( 'NONE',  ( 0.000000000000000000, 0.000000000000000000, 163.0000000000000000 ) ) ;
#67 = ORIENTED_EDGE ( 'NONE', *, *, #195, .F. ) ;
#68 = DESIGN_CONTEXT ( 'detailed design', #218, 'design' ) ;
#69 = CARTESIAN_POINT ( 'NONE',  ( 0.000000000000000000, 0.000000000000000000, 3.200000000000008171 ) ) ;
#70 = AXIS2_PLACEMENT_3D ( 'NONE', #7, #121, #82 ) ;
#71 = CARTESIAN_POINT ( 'NONE',  ( 0.000000000000000000, 0.000000000000000000, 3.200000000000008171 ) ) ;
#72 = DIRECTION ( 'NONE',  ( 0.000000000000000000, 0.000000000000000000, 1.000000000000000000 ) ) ;
#73 = AXIS2_PLACEMENT_3D ( 'NONE', #87, #85, #40 ) ;
#74 = CARTESIAN_POINT ( 'NONE',  ( 0.000000000000000000, 0.000000000000000000, 163.0000000000000000 ) ) ;
#75 = CALENDAR_DATE ( 2022, 20, 6 ) ;
#76 = DIRECTION ( 'NONE',  ( 0.000000000000000000, 0.000000000000000000, 1.000000000000000000 ) ) ;
#77 = EDGE_CURVE ( 'NONE', #274, #53, #295, .T. ) ;
#78 = DATE_AND_TIME ( #75, #188 ) ;
#79 = ORIENTED_EDGE ( 'NONE', *, *, #304, .F. ) ;
#80 = VECTOR ( 'NONE', #275, 1000.000000000000000 ) ;
#81 = PERSON_AND_ORGANIZATION ( #102, #290 ) ;
#82 = DIRECTION ( 'NONE',  ( -1.000000000000000000, 0.000000000000000000, 0.000000000000000000 ) ) ;
#83 = CARTESIAN_POINT ( 'NONE',  ( 0.000000000000000000, 0.000000000000000000, 3.000000000000000000 ) ) ;
#84 = APPROVAL_DATE_TIME ( #149, #42 ) ;
#85 = DIRECTION ( 'NONE',  ( 0.000000000000000000, 0.000000000000000000, 1.000000000000000000 ) ) ;
#86 = DATE_AND_TIME ( #30, #15 ) ;
#87 = CARTESIAN_POINT ( 'NONE',  ( 0.000000000000000000, 0.000000000000000000, 163.0000000000000000 ) ) ;
#88 = AXIS2_PLACEMENT_3D ( 'NONE', #235, #96, #20 ) ;
#89 = CARTESIAN_POINT ( 'NONE',  ( 0.000000000000000000, 0.000000000000000000, 3.000000000000000000 ) ) ;
#90 = CARTESIAN_POINT ( 'NONE',  ( 0.000000000000000000, 0.000000000000000000, 3.200000000000008171 ) ) ;
#91 = CC_DESIGN_DATE_AND_TIME_ASSIGNMENT ( #216, #1, ( #3 ) ) ;
#92 = DIRECTION ( 'NONE',  ( -0.000000000000000000, -0.000000000000000000, -1.000000000000000000 ) ) ;
#93 = DIRECTION ( 'NONE',  ( -1.000000000000000000, 1.224646799147354686E-16, 0.000000000000000000 ) ) ;
#94 = AXIS2_PLACEMENT_3D ( 'NONE', #89, #231, #187 ) ;
#95 = PERSON_AND_ORGANIZATION_ROLE ( 'creator' ) ;
#96 = DIRECTION ( 'NONE',  ( -0.000000000000000000, -0.000000000000000000, -1.000000000000000000 ) ) ;
#97 = PERSON_AND_ORGANIZATION ( #102, #290 ) ;
#98 = LOCAL_TIME ( 12, 13, 55.00000000000000000, #225 ) ;
#99 = ORIENTED_EDGE ( 'NONE', *, *, #126, .F. ) ;
#100 = CC_DESIGN_PERSON_AND_ORGANIZATION_ASSIGNMENT ( #153, #173, ( #273 ) ) ;
#101 = LOCAL_TIME ( 12, 13, 55.00000000000000000, #25 ) ;
#102 = PERSON ( 'NEURÈENÝ', 'NEURÈENÝ', 'NEURÈENÝ', ('NEURÈENÝ'), ('NEURÈENÝ'), ('NEURÈENÝ') ) ;
#103 = TOROIDAL_SURFACE ( 'NONE', #168, 1.800000000000000266, 0.2000000000000000111 ) ;
#104 = DIRECTION ( 'NONE',  ( -0.000000000000000000, -0.000000000000000000, -1.000000000000000000 ) ) ;
#105 = DIRECTION ( 'NONE',  ( -1.000000000000000000, 0.000000000000000000, 0.000000000000000000 ) ) ;
#106 = CYLINDRICAL_SURFACE ( 'NONE', #164, 1.600000000000000089 ) ;
#107 = EDGE_CURVE ( 'NONE', #274, #171, #56, .T. ) ;
#108 = CIRCLE ( 'NONE', #88, 1.800000000000000266 ) ;
#109 = ORIENTED_EDGE ( 'NONE', *, *, #195, .T. ) ;
#110 = ORIENTED_EDGE ( 'NONE', *, *, #254, .T. ) ;
#111 = DIRECTION ( 'NONE',  ( 1.224646799147353207E-16, 1.000000000000000000, -0.000000000000000000 ) ) ;
#112 = DIRECTION ( 'NONE',  ( -0.000000000000000000, -0.000000000000000000, -1.000000000000000000 ) ) ;
#113 = FACE_OUTER_BOUND ( 'NONE', #245, .T. ) ;
#114 = AXIS2_PLACEMENT_3D ( 'NONE', #123, #244, #50 ) ;
#115 = AXIS2_PLACEMENT_3D ( 'NONE', #44, #280, #22 ) ;
#116 = CARTESIAN_POINT ( 'NONE',  ( -1.600000000000000089, 0.000000000000000000, 3.200000000000008171 ) ) ;
#117 = PLANE ( 'NONE',  #217 ) ;
#118 = CALENDAR_DATE ( 2022, 20, 6 ) ;
#119 =( NAMED_UNIT ( * ) SI_UNIT ( $, .STERADIAN. ) SOLID_ANGLE_UNIT ( ) );
#120 = AXIS2_PLACEMENT_3D ( 'NONE', #74, #141, #297 ) ;
#121 = DIRECTION ( 'NONE',  ( -0.000000000000000000, -0.000000000000000000, -1.000000000000000000 ) ) ;
#122 = APPROVAL_ROLE ( '' ) ;
#123 = CARTESIAN_POINT ( 'NONE',  ( 0.000000000000000000, 0.000000000000000000, 163.0000000000000000 ) ) ;
#124 = AXIS2_PLACEMENT_3D ( 'NONE', #209, #46, #194 ) ;
#125 = ORIENTED_EDGE ( 'NONE', *, *, #304, .T. ) ;
#126 = EDGE_CURVE ( 'NONE', #291, #129, #108, .T. ) ;
#127 = ORIENTED_EDGE ( 'NONE', *, *, #61, .T. ) ;
#128 = CC_DESIGN_DATE_AND_TIME_ASSIGNMENT ( #86, #9, ( #279 ) ) ;
#129 = VERTEX_POINT ( 'NONE', #239 ) ;
#130 = PERSON_AND_ORGANIZATION_ROLE ( 'classification_officer' ) ;
#131 = EDGE_LOOP ( 'NONE', ( #16, #250, #109, #303 ) ) ;
#132 = CIRCLE ( 'NONE', #13, 3.000000000000000444 ) ;
#133 = EDGE_LOOP ( 'NONE', ( #213, #204, #62, #11 ) ) ;
#134 = ADVANCED_FACE ( 'NONE', ( #161 ), #103, .F. ) ;
#135 = CC_DESIGN_SECURITY_CLASSIFICATION ( #279, ( #273 ) ) ;
#136 = LINE ( 'NONE', #178, #10 ) ;
#137 = CARTESIAN_POINT ( 'NONE',  ( 3.000000000000000444, 3.673940397442060361E-16, 3.000000000000000000 ) ) ;
#138 = DIRECTION ( 'NONE',  ( 0.000000000000000000, 0.000000000000000000, 1.000000000000000000 ) ) ;
#139 = MANIFOLD_SOLID_BREP ( 'Zaoblit1', #228 ) ;
#140 = LINE ( 'NONE', #143, #26 ) ;
#141 = DIRECTION ( 'NONE',  ( -0.000000000000000000, -0.000000000000000000, -1.000000000000000000 ) ) ;
#142 = APPROVAL_PERSON_ORGANIZATION ( #97, #42, #52 ) ;
#143 = CARTESIAN_POINT ( 'NONE',  ( -1.600000000000000089, 0.000000000000000000, 163.0000000000000000 ) ) ;
#144 = APPLICATION_PROTOCOL_DEFINITION ( 'international standard', 'config_control_design', 1994, #218 ) ;
#145 = CC_DESIGN_APPROVAL ( #42, ( #273 ) ) ;
#146 = CARTESIAN_POINT ( 'NONE',  ( 0.000000000000000000, 0.000000000000000000, 3.000000000000000000 ) ) ;
#147 = DIRECTION ( 'NONE',  ( 0.000000000000000000, 0.000000000000000000, 1.000000000000000000 ) ) ;
#148 = ADVANCED_BREP_SHAPE_REPRESENTATION ( '64c8', ( #139, #43 ), #157 ) ;
#149 = DATE_AND_TIME ( #35, #98 ) ;
#150 = CALENDAR_DATE ( 2022, 20, 6 ) ;
#151 = PRODUCT_DEFINITION_SHAPE ( 'NONE', 'NONE',  #3 ) ;
#152 = CARTESIAN_POINT ( 'NONE',  ( 3.000000000000000444, 3.673940397442060361E-16, 0.000000000000000000 ) ) ;
#153 = PERSON_AND_ORGANIZATION ( #102, #290 ) ;
#154 = DIRECTION ( 'NONE',  ( 0.000000000000000000, -1.000000000000000000, 0.000000000000000000 ) ) ;
#155 = EDGE_CURVE ( 'NONE', #267, #291, #292, .T. ) ;
#156 = VERTEX_POINT ( 'NONE', #208 ) ;
#157 =( GEOMETRIC_REPRESENTATION_CONTEXT ( 3 ) GLOBAL_UNCERTAINTY_ASSIGNED_CONTEXT ( ( #210 ) ) GLOBAL_UNIT_ASSIGNED_CONTEXT ( ( #28, #5, #119 ) ) REPRESENTATION_CONTEXT ( 'NONE', 'WORKASPACE' ) );
#158 = FACE_OUTER_BOUND ( 'NONE', #242, .T. ) ;
#159 = ORIENTED_EDGE ( 'NONE', *, *, #155, .T. ) ;
#160 = ADVANCED_FACE ( 'NONE', ( #167 ), #277, .F. ) ;
#161 = FACE_OUTER_BOUND ( 'NONE', #221, .T. ) ;
#162 = APPROVAL_PERSON_ORGANIZATION ( #264, #24, #122 ) ;
#163 = CYLINDRICAL_SURFACE ( 'NONE', #120, 1.600000000000000089 ) ;
#164 = AXIS2_PLACEMENT_3D ( 'NONE', #66, #253, #105 ) ;
#165 = CARTESIAN_POINT ( 'NONE',  ( -3.000000000000000444, 0.000000000000000000, 3.000000000000000000 ) ) ;
#166 = FACE_BOUND ( 'NONE', #41, .T. ) ;
#167 = FACE_OUTER_BOUND ( 'NONE', #37, .T. ) ;
#168 = AXIS2_PLACEMENT_3D ( 'NONE', #71, #45, #278 ) ;
#169 = ADVANCED_FACE ( 'NONE', ( #276 ), #163, .T. ) ;
#170 = APPROVAL_STATUS ( 'not_yet_approved' ) ;
#171 = VERTEX_POINT ( 'NONE', #165 ) ;
#172 = AXIS2_PLACEMENT_3D ( 'NONE', #261, #138, #185 ) ;
#173 = PERSON_AND_ORGANIZATION_ROLE ( 'design_supplier' ) ;
#174 = EDGE_CURVE ( 'NONE', #156, #267, #140, .T. ) ;
#175 = AXIS2_PLACEMENT_3D ( 'NONE', #146, #147, #196 ) ;
#176 = EDGE_LOOP ( 'NONE', ( #39, #79, #183, #293 ) ) ;
#177 = APPROVAL_ROLE ( '' ) ;
#178 = CARTESIAN_POINT ( 'NONE',  ( 1.600000000000000089, 1.959434878635765230E-16, 163.0000000000000000 ) ) ;
#179 = SHAPE_DEFINITION_REPRESENTATION ( #151, #148 ) ;
#180 = ORIENTED_EDGE ( 'NONE', *, *, #306, .T. ) ;
#181 = COORDINATED_UNIVERSAL_TIME_OFFSET ( 1, 0, .AHEAD. ) ;
#182 = ORIENTED_EDGE ( 'NONE', *, *, #232, .T. ) ;
#183 = ORIENTED_EDGE ( 'NONE', *, *, #285, .T. ) ;
#184 = ADVANCED_FACE ( 'NONE', ( #113 ), #260, .T. ) ;
#185 = DIRECTION ( 'NONE',  ( 1.000000000000000000, 0.000000000000000000, 0.000000000000000000 ) ) ;
#186 = CC_DESIGN_PERSON_AND_ORGANIZATION_ASSIGNMENT ( #266, #130, ( #279 ) ) ;
#187 = DIRECTION ( 'NONE',  ( 1.000000000000000000, 0.000000000000000000, 0.000000000000000000 ) ) ;
#188 = LOCAL_TIME ( 12, 13, 55.00000000000000000, #192 ) ;
#189 = DIRECTION ( 'NONE',  ( 0.000000000000000000, 0.000000000000000000, 1.000000000000000000 ) ) ;
#190 = APPROVAL_PERSON_ORGANIZATION ( #288, #294, #177 ) ;
#191 = CARTESIAN_POINT ( 'NONE',  ( -1.800000000000000266, 2.204364238465236069E-16, 3.200000000000008171 ) ) ;
#192 = COORDINATED_UNIVERSAL_TIME_OFFSET ( 1, 0, .AHEAD. ) ;
#193 = APPLICATION_CONTEXT ( 'configuration controlled 3d designs of mechanical parts and assemblies' ) ;
#194 = DIRECTION ( 'NONE',  ( 1.000000000000000000, 0.000000000000000000, -0.000000000000000000 ) ) ;
#195 = EDGE_CURVE ( 'NONE', #53, #271, #132, .T. ) ;
#196 = DIRECTION ( 'NONE',  ( 1.000000000000000000, 0.000000000000000000, 0.000000000000000000 ) ) ;
#197 = PRODUCT_RELATED_PRODUCT_CATEGORY ( 'detail', '', ( #272 ) ) ;
#198 = CIRCLE ( 'NONE', #73, 1.600000000000000089 ) ;
#199 = VERTEX_POINT ( 'NONE', #206 ) ;
#200 = AXIS2_PLACEMENT_3D ( 'NONE', #301, #215, #258 ) ;
#201 = FACE_OUTER_BOUND ( 'NONE', #131, .T. ) ;
#202 = SECURITY_CLASSIFICATION_LEVEL ( 'unclassified' ) ;
#203 = DIRECTION ( 'NONE',  ( 1.000000000000000000, 0.000000000000000000, 0.000000000000000000 ) ) ;
#204 = ORIENTED_EDGE ( 'NONE', *, *, #54, .T. ) ;
#205 = DIRECTION ( 'NONE',  ( 0.000000000000000000, 0.000000000000000000, 1.000000000000000000 ) ) ;
#206 = CARTESIAN_POINT ( 'NONE',  ( 1.600000000000000089, 1.959434878635765230E-16, 163.0000000000000000 ) ) ;
#207 = AXIS2_PLACEMENT_3D ( 'NONE', #83, #104, #60 ) ;
#208 = CARTESIAN_POINT ( 'NONE',  ( -1.600000000000000089, 0.000000000000000000, 163.0000000000000000 ) ) ;
#209 = CARTESIAN_POINT ( 'NONE',  ( 0.000000000000000000, 0.000000000000000000, 163.0000000000000000 ) ) ;
#210 = UNCERTAINTY_MEASURE_WITH_UNIT (LENGTH_MEASURE( 1.000000000000000082E-05 ), #28, 'distance_accuracy_value', 'NONE');
#211 = ADVANCED_FACE ( 'NONE', ( #166, #49 ), #117, .T. ) ;
#212 = CARTESIAN_POINT ( 'NONE',  ( -3.000000000000000444, 0.000000000000000000, 0.000000000000000000 ) ) ;
#213 = ORIENTED_EDGE ( 'NONE', *, *, #306, .F. ) ;
#214 = AXIS2_PLACEMENT_3D ( 'NONE', #270, #154, #229 ) ;
#215 = DIRECTION ( 'NONE',  ( -0.000000000000000000, -0.000000000000000000, -1.000000000000000000 ) ) ;
#216 = DATE_AND_TIME ( #118, #101 ) ;
#217 = AXIS2_PLACEMENT_3D ( 'NONE', #259, #76, #300 ) ;
#218 = APPLICATION_CONTEXT ( 'configuration controlled 3d designs of mechanical parts and assemblies' ) ;
#219 = DIRECTION ( 'NONE',  ( 1.000000000000000000, 0.000000000000000000, 0.000000000000000000 ) ) ;
#220 = ORIENTED_EDGE ( 'NONE', *, *, #107, .T. ) ;
#221 = EDGE_LOOP ( 'NONE', ( #289, #247, #127, #99 ) ) ;
#222 = ORIENTED_EDGE ( 'NONE', *, *, #126, .T. ) ;
#223 = APPROVAL_DATE_TIME ( #269, #294 ) ;
#224 = DIRECTION ( 'NONE',  ( -0.000000000000000000, -0.000000000000000000, -1.000000000000000000 ) ) ;
#225 = COORDINATED_UNIVERSAL_TIME_OFFSET ( 1, 0, .AHEAD. ) ;
#226 = ORIENTED_EDGE ( 'NONE', *, *, #232, .F. ) ;
#227 = CC_DESIGN_APPROVAL ( #294, ( #279 ) ) ;
#228 = CLOSED_SHELL ( 'NONE', ( #33, #19, #6, #299, #211, #160, #169, #184, #134 ) ) ;
#229 = DIRECTION ( 'NONE',  ( 0.000000000000000000, 0.000000000000000000, -1.000000000000000000 ) ) ;
#230 = CARTESIAN_POINT ( 'NONE',  ( 0.000000000000000000, 0.000000000000000000, 0.000000000000000000 ) ) ;
#231 = DIRECTION ( 'NONE',  ( 0.000000000000000000, 0.000000000000000000, 1.000000000000000000 ) ) ;
#232 = EDGE_CURVE ( 'NONE', #129, #291, #302, .T. ) ;
#233 = DIRECTION ( 'NONE',  ( 1.000000000000000000, 0.000000000000000000, 0.000000000000000000 ) ) ;
#234 = AXIS2_PLACEMENT_3D ( 'NONE', #17, #205, #203 ) ;
#235 = CARTESIAN_POINT ( 'NONE',  ( 0.000000000000000000, 0.000000000000000000, 3.000000000000000000 ) ) ;
#236 = CC_DESIGN_PERSON_AND_ORGANIZATION_ASSIGNMENT ( #281, #243, ( #272 ) ) ;
#237 = CARTESIAN_POINT ( 'NONE',  ( 0.000000000000000000, 0.000000000000000000, 0.000000000000000000 ) ) ;
#238 = CC_DESIGN_APPROVAL ( #24, ( #3 ) ) ;
#239 = CARTESIAN_POINT ( 'NONE',  ( 1.800000000000000266, 0.000000000000000000, 3.000000000000004441 ) ) ;
#240 = EDGE_CURVE ( 'NONE', #271, #53, #246, .T. ) ;
#241 = APPROVAL_STATUS ( 'not_yet_approved' ) ;
#242 = EDGE_LOOP ( 'NONE', ( #249, #159, #226, #265 ) ) ;
#243 = PERSON_AND_ORGANIZATION_ROLE ( 'design_owner' ) ;
#244 = DIRECTION ( 'NONE',  ( 0.000000000000000000, 0.000000000000000000, 1.000000000000000000 ) ) ;
#245 = EDGE_LOOP ( 'NONE', ( #34, #180 ) ) ;
#246 = CIRCLE ( 'NONE', #172, 3.000000000000000444 ) ;
#247 = ORIENTED_EDGE ( 'NONE', *, *, #248, .F. ) ;
#248 = EDGE_CURVE ( 'NONE', #14, #267, #48, .T. ) ;
#249 = ORIENTED_EDGE ( 'NONE', *, *, #254, .F. ) ;
#250 = ORIENTED_EDGE ( 'NONE', *, *, #77, .T. ) ;
#251 = AXIS2_PLACEMENT_3D ( 'NONE', #191, #111, #93 ) ;
#252 = ORIENTED_EDGE ( 'NONE', *, *, #54, .F. ) ;
#253 = DIRECTION ( 'NONE',  ( -0.000000000000000000, -0.000000000000000000, -1.000000000000000000 ) ) ;
#254 = EDGE_CURVE ( 'NONE', #267, #14, #284, .T. ) ;
#255 = FACE_OUTER_BOUND ( 'NONE', #133, .T. ) ;
#256 = DIRECTION ( 'NONE',  ( 0.000000000000000000, 0.000000000000000000, 1.000000000000000000 ) ) ;
#257 = VECTOR ( 'NONE', #112, 1000.000000000000000 ) ;
#258 = DIRECTION ( 'NONE',  ( 1.000000000000000000, 0.000000000000000000, 0.000000000000000000 ) ) ;
#259 = CARTESIAN_POINT ( 'NONE',  ( 0.000000000000000000, 0.000000000000000000, 3.000000000000000000 ) ) ;
#260 = PLANE ( 'NONE',  #124 ) ;
#261 = CARTESIAN_POINT ( 'NONE',  ( 0.000000000000000000, 0.000000000000000000, 0.000000000000000000 ) ) ;
#262 = TOROIDAL_SURFACE ( 'NONE', #234, 1.800000000000000266, 0.2000000000000000111 ) ;
#263 = FACE_OUTER_BOUND ( 'NONE', #176, .T. ) ;
#264 = PERSON_AND_ORGANIZATION ( #102, #290 ) ;
#265 = ORIENTED_EDGE ( 'NONE', *, *, #61, .F. ) ;
#266 = PERSON_AND_ORGANIZATION ( #102, #290 ) ;
#267 = VERTEX_POINT ( 'NONE', #116 ) ;
#268 = ORIENTED_EDGE ( 'NONE', *, *, #174, .T. ) ;
#269 = DATE_AND_TIME ( #150, #55 ) ;
#270 = CARTESIAN_POINT ( 'NONE',  ( 1.800000000000000266, 0.000000000000000000, 3.200000000000008171 ) ) ;
#271 = VERTEX_POINT ( 'NONE', #212 ) ;
#272 = PRODUCT ( '64c8', '64c8', '', ( #286 ) ) ;
#273 = PRODUCT_DEFINITION_FORMATION_WITH_SPECIFIED_SOURCE ( 'LIBOVOLNÝ', '', #272, .NOT_KNOWN. ) ;
#274 = VERTEX_POINT ( 'NONE', #137 ) ;
#275 = DIRECTION ( 'NONE',  ( -0.000000000000000000, -0.000000000000000000, -1.000000000000000000 ) ) ;
#276 = FACE_OUTER_BOUND ( 'NONE', #8, .T. ) ;
#277 = PLANE ( 'NONE',  #115 ) ;
#278 = DIRECTION ( 'NONE',  ( 1.000000000000000000, 0.000000000000000000, 0.000000000000000000 ) ) ;
#279 = SECURITY_CLASSIFICATION ( '', '', #202 ) ;
#280 = DIRECTION ( 'NONE',  ( 0.000000000000000000, 0.000000000000000000, 1.000000000000000000 ) ) ;
#281 = PERSON_AND_ORGANIZATION ( #102, #290 ) ;
#282 = DIRECTION ( 'NONE',  ( 1.000000000000000000, 0.000000000000000000, 0.000000000000000000 ) ) ;
#283 = CC_DESIGN_PERSON_AND_ORGANIZATION_ASSIGNMENT ( #29, #95, ( #3 ) ) ;
#284 = CIRCLE ( 'NONE', #18, 1.600000000000000089 ) ;
#285 = EDGE_CURVE ( 'NONE', #171, #271, #305, .T. ) ;
#286 = MECHANICAL_CONTEXT ( 'NONE', #193, 'mechanical' ) ;
#287 = ORIENTED_EDGE ( 'NONE', *, *, #47, .F. ) ;
#288 = PERSON_AND_ORGANIZATION ( #102, #290 ) ;
#289 = ORIENTED_EDGE ( 'NONE', *, *, #155, .F. ) ;
#290 = ORGANIZATION ( 'NEURÈENÝ', 'NEURÈENÝ', '' ) ;
#291 = VERTEX_POINT ( 'NONE', #307 ) ;
#292 = CIRCLE ( 'NONE', #251, 0.1999999999999998723 ) ;
#293 = ORIENTED_EDGE ( 'NONE', *, *, #240, .T. ) ;
#294 = APPROVAL ( #59, 'NEURÈENÝ' ) ;
#295 = LINE ( 'NONE', #296, #80 ) ;
#296 = CARTESIAN_POINT ( 'NONE',  ( 3.000000000000000444, 3.673940397442060361E-16, 3.000000000000000000 ) ) ;
#297 = DIRECTION ( 'NONE',  ( -1.000000000000000000, 0.000000000000000000, 0.000000000000000000 ) ) ;
#298 = CIRCLE ( 'NONE', #214, 0.2000000000000000944 ) ;
#299 = ADVANCED_FACE ( 'NONE', ( #263 ), #51, .T. ) ;
#300 = DIRECTION ( 'NONE',  ( 1.000000000000000000, 0.000000000000000000, -0.000000000000000000 ) ) ;
#301 = CARTESIAN_POINT ( 'NONE',  ( 0.000000000000000000, 0.000000000000000000, 3.000000000000000000 ) ) ;
#302 = CIRCLE ( 'NONE', #200, 1.800000000000000266 ) ;
#303 = ORIENTED_EDGE ( 'NONE', *, *, #285, .F. ) ;
#304 = EDGE_CURVE ( 'NONE', #171, #274, #38, .T. ) ;
#305 = LINE ( 'NONE', #21, #257 ) ;
#306 = EDGE_CURVE ( 'NONE', #199, #156, #65, .T. ) ;
#307 = CARTESIAN_POINT ( 'NONE',  ( -1.800000000000000266, 2.204364238465236069E-16, 3.000000000000004441 ) ) ;
ENDSEC;
END-ISO-10303-21;
