ISO-10303-21;
HEADER;
FILE_DESCRIPTION (( 'STEP AP203' ),
    '1' );
FILE_NAME ('382c.STEP',
    '2022-06-20T10:03:50',
    ( '' ),
    ( '' ),
    'SwSTEP 2.0',
    'SolidWorks 2019',
    '' );
FILE_SCHEMA (( 'CONFIG_CONTROL_DESIGN' ));
ENDSEC;

DATA;
#1 = DIRECTION ( 'NONE',  ( 0.000000000000000000, 0.000000000000000000, 1.000000000000000000 ) ) ;
#2 = EDGE_CURVE ( 'NONE', #118, #183, #258, .T. ) ;
#3 = EDGE_CURVE ( 'NONE', #130, #141, #113, .T. ) ;
#4 = PERSON_AND_ORGANIZATION ( #109, #125 ) ;
#5 = PERSON_AND_ORGANIZATION_ROLE ( 'creator' ) ;
#6 = APPROVAL_STATUS ( 'not_yet_approved' ) ;
#7 = ADVANCED_FACE ( 'NONE', ( #133 ), #267, .F. ) ;
#8 = ORIENTED_EDGE ( 'NONE', *, *, #32, .F. ) ;
#9 = APPROVAL_DATE_TIME ( #240, #220 ) ;
#10 = CIRCLE ( 'NONE', #139, 5.000000000000000000 ) ;
#11 = CARTESIAN_POINT ( 'NONE',  ( 0.000000000000000000, 0.000000000000000000, 3.200000000000008171 ) ) ;
#12 = ADVANCED_FACE ( 'NONE', ( #70 ), #140, .T. ) ;
#13 = PERSON_AND_ORGANIZATION ( #109, #125 ) ;
#14 = CARTESIAN_POINT ( 'NONE',  ( -2.500000000000000000, 0.000000000000000000, 3.200000000000008171 ) ) ;
#15 = DIRECTION ( 'NONE',  ( -0.000000000000000000, -0.000000000000000000, -1.000000000000000000 ) ) ;
#16 = ORIENTED_EDGE ( 'NONE', *, *, #213, .T. ) ;
#17 = CARTESIAN_POINT ( 'NONE',  ( 2.700000000000000178, 0.000000000000000000, 3.200000000000008171 ) ) ;
#18 = AXIS2_PLACEMENT_3D ( 'NONE', #23, #89, #182 ) ;
#19 = EDGE_CURVE ( 'NONE', #247, #98, #86, .T. ) ;
#20 = LOCAL_TIME ( 12, 3, 50.00000000000000000, #83 ) ;
#21 = EDGE_LOOP ( 'NONE', ( #75, #142, #16, #35 ) ) ;
#22 = DIRECTION ( 'NONE',  ( 0.000000000000000000, 0.000000000000000000, 1.000000000000000000 ) ) ;
#23 = CARTESIAN_POINT ( 'NONE',  ( 0.000000000000000000, 0.000000000000000000, 253.0000000000000000 ) ) ;
#24 = ORIENTED_EDGE ( 'NONE', *, *, #167, .F. ) ;
#25 = CARTESIAN_POINT ( 'NONE',  ( 0.000000000000000000, 0.000000000000000000, 3.000000000000000000 ) ) ;
#26 = ADVANCED_BREP_SHAPE_REPRESENTATION ( '382c', ( #215, #178 ), #152 ) ;
#27 = AXIS2_PLACEMENT_3D ( 'NONE', #11, #273, #174 ) ;
#28 = CYLINDRICAL_SURFACE ( 'NONE', #214, 5.000000000000000000 ) ;
#29 = EDGE_CURVE ( 'NONE', #247, #299, #246, .T. ) ;
#30 = AXIS2_PLACEMENT_3D ( 'NONE', #255, #230, #280 ) ;
#31 = COORDINATED_UNIVERSAL_TIME_OFFSET ( 1, 0, .AHEAD. ) ;
#32 = EDGE_CURVE ( 'NONE', #141, #48, #297, .T. ) ;
#33 = APPLICATION_CONTEXT ( 'configuration controlled 3d designs of mechanical parts and assemblies' ) ;
#34 = AXIS2_PLACEMENT_3D ( 'NONE', #164, #234, #53 ) ;
#35 = ORIENTED_EDGE ( 'NONE', *, *, #187, .F. ) ;
#36 = PRODUCT_RELATED_PRODUCT_CATEGORY ( 'detail', '', ( #288 ) ) ;
#37 = CARTESIAN_POINT ( 'NONE',  ( 5.000000000000000000, 6.123233995736766282E-16, 3.000000000000000000 ) ) ;
#38 = EDGE_LOOP ( 'NONE', ( #157, #121, #66, #160 ) ) ;
#39 = AXIS2_PLACEMENT_3D ( 'NONE', #229, #302, #65 ) ;
#40 = DIRECTION ( 'NONE',  ( 0.000000000000000000, 0.000000000000000000, 1.000000000000000000 ) ) ;
#41 = APPROVAL_DATE_TIME ( #64, #145 ) ;
#42 = CYLINDRICAL_SURFACE ( 'NONE', #100, 2.500000000000000000 ) ;
#43 = ADVANCED_FACE ( 'NONE', ( #129 ), #293, .T. ) ;
#44 = CARTESIAN_POINT ( 'NONE',  ( 0.000000000000000000, 0.000000000000000000, 3.200000000000008171 ) ) ;
#45 = EDGE_LOOP ( 'NONE', ( #50, #138, #72, #231 ) ) ;
#46 = FACE_OUTER_BOUND ( 'NONE', #177, .T. ) ;
#47 = APPROVAL_PERSON_ORGANIZATION ( #256, #55, #263 ) ;
#48 = VERTEX_POINT ( 'NONE', #92 ) ;
#49 = DIRECTION ( 'NONE',  ( 1.000000000000000000, 0.000000000000000000, 0.000000000000000000 ) ) ;
#50 = ORIENTED_EDGE ( 'NONE', *, *, #19, .F. ) ;
#51 = CARTESIAN_POINT ( 'NONE',  ( -2.500000000000000000, 0.000000000000000000, 253.0000000000000000 ) ) ;
#52 = CC_DESIGN_PERSON_AND_ORGANIZATION_ASSIGNMENT ( #108, #107, ( #148 ) ) ;
#53 = DIRECTION ( 'NONE',  ( 1.000000000000000000, 0.000000000000000000, 0.000000000000000000 ) ) ;
#54 =( NAMED_UNIT ( * ) PLANE_ANGLE_UNIT ( ) SI_UNIT ( $, .RADIAN. ) );
#55 = APPROVAL ( #193, 'NEURÈENÝ' ) ;
#56 = AXIS2_PLACEMENT_3D ( 'NONE', #161, #192, #162 ) ;
#57 = APPROVAL_PERSON_ORGANIZATION ( #13, #145, #78 ) ;
#58 = PERSON_AND_ORGANIZATION_ROLE ( 'creator' ) ;
#59 = DATE_AND_TIME ( #170, #123 ) ;
#60 = AXIS2_PLACEMENT_3D ( 'NONE', #25, #210, #99 ) ;
#61 = PERSON_AND_ORGANIZATION_ROLE ( 'design_supplier' ) ;
#62 = CC_DESIGN_PERSON_AND_ORGANIZATION_ASSIGNMENT ( #128, #5, ( #264 ) ) ;
#63 = ADVANCED_FACE ( 'NONE', ( #46 ), #222, .F. ) ;
#64 = DATE_AND_TIME ( #244, #284 ) ;
#65 = DIRECTION ( 'NONE',  ( 1.000000000000000000, 0.000000000000000000, -0.000000000000000000 ) ) ;
#66 = ORIENTED_EDGE ( 'NONE', *, *, #77, .T. ) ;
#67 = AXIS2_PLACEMENT_3D ( 'NONE', #82, #305, #124 ) ;
#68 = CARTESIAN_POINT ( 'NONE',  ( 0.000000000000000000, 0.000000000000000000, 3.200000000000008171 ) ) ;
#69 = ADVANCED_FACE ( 'NONE', ( #176 ), #274, .F. ) ;
#70 = FACE_OUTER_BOUND ( 'NONE', #90, .T. ) ;
#71 = DIRECTION ( 'NONE',  ( 0.000000000000000000, 0.000000000000000000, 1.000000000000000000 ) ) ;
#72 = ORIENTED_EDGE ( 'NONE', *, *, #235, .T. ) ;
#73 = LINE ( 'NONE', #51, #279 ) ;
#74 = APPROVAL_PERSON_ORGANIZATION ( #4, #220, #286 ) ;
#75 = ORIENTED_EDGE ( 'NONE', *, *, #201, .F. ) ;
#76 = APPLICATION_PROTOCOL_DEFINITION ( 'international standard', 'config_control_design', 1994, #265 ) ;
#77 = EDGE_CURVE ( 'NONE', #48, #183, #217, .T. ) ;
#78 = APPROVAL_ROLE ( '' ) ;
#79 = FACE_OUTER_BOUND ( 'NONE', #228, .T. ) ;
#80 = CARTESIAN_POINT ( 'NONE',  ( 0.000000000000000000, 0.000000000000000000, 3.000000000000000000 ) ) ;
#81 = ADVANCED_FACE ( 'NONE', ( #250 ), #42, .T. ) ;
#82 = CARTESIAN_POINT ( 'NONE',  ( 0.000000000000000000, 0.000000000000000000, 3.200000000000008171 ) ) ;
#83 = COORDINATED_UNIVERSAL_TIME_OFFSET ( 1, 0, .AHEAD. ) ;
#84 = CIRCLE ( 'NONE', #34, 5.000000000000000000 ) ;
#85 = DATE_TIME_ROLE ( 'classification_date' ) ;
#86 = CIRCLE ( 'NONE', #132, 5.000000000000000000 ) ;
#87 = DIRECTION ( 'NONE',  ( -0.000000000000000000, -0.000000000000000000, -1.000000000000000000 ) ) ;
#88 = ORIENTED_EDGE ( 'NONE', *, *, #277, .T. ) ;
#89 = DIRECTION ( 'NONE',  ( 0.000000000000000000, 0.000000000000000000, 1.000000000000000000 ) ) ;
#90 = EDGE_LOOP ( 'NONE', ( #8, #202, #175, #95 ) ) ;
#91 = AXIS2_PLACEMENT_3D ( 'NONE', #68, #221, #198 ) ;
#92 = CARTESIAN_POINT ( 'NONE',  ( 2.500000000000000000, 3.061616997868383141E-16, 3.200000000000008171 ) ) ;
#93 = CC_DESIGN_APPROVAL ( #145, ( #148 ) ) ;
#94 = DIRECTION ( 'NONE',  ( 1.000000000000000000, 0.000000000000000000, 0.000000000000000000 ) ) ;
#95 = ORIENTED_EDGE ( 'NONE', *, *, #173, .T. ) ;
#96 = CYLINDRICAL_SURFACE ( 'NONE', #104, 5.000000000000000000 ) ;
#97 = SHAPE_DEFINITION_REPRESENTATION ( #243, #26 ) ;
#98 = VERTEX_POINT ( 'NONE', #203 ) ;
#99 = DIRECTION ( 'NONE',  ( 1.000000000000000000, 0.000000000000000000, 0.000000000000000000 ) ) ;
#100 = AXIS2_PLACEMENT_3D ( 'NONE', #117, #15, #153 ) ;
#101 = CARTESIAN_POINT ( 'NONE',  ( 2.700000000000000178, 0.000000000000000000, 3.000000000000004441 ) ) ;
#102 = DIRECTION ( 'NONE',  ( -1.000000000000000000, 0.000000000000000000, 0.000000000000000000 ) ) ;
#103 = CARTESIAN_POINT ( 'NONE',  ( 0.000000000000000000, 0.000000000000000000, 253.0000000000000000 ) ) ;
#104 = AXIS2_PLACEMENT_3D ( 'NONE', #295, #278, #149 ) ;
#105 = CC_DESIGN_APPROVAL ( #220, ( #197 ) ) ;
#106 = FACE_BOUND ( 'NONE', #206, .T. ) ;
#107 = PERSON_AND_ORGANIZATION_ROLE ( 'classification_officer' ) ;
#108 = PERSON_AND_ORGANIZATION ( #109, #125 ) ;
#109 = PERSON ( 'NEURÈENÝ', 'NEURÈENÝ', 'NEURÈENÝ', ('NEURÈENÝ'), ('NEURÈENÝ'), ('NEURÈENÝ') ) ;
#110 = PERSON_AND_ORGANIZATION ( #109, #125 ) ;
#111 = SECURITY_CLASSIFICATION_LEVEL ( 'unclassified' ) ;
#112 = VERTEX_POINT ( 'NONE', #14 ) ;
#113 = CIRCLE ( 'NONE', #18, 2.500000000000000000 ) ;
#114 = CARTESIAN_POINT ( 'NONE',  ( 2.500000000000000000, 3.061616997868383141E-16, 253.0000000000000000 ) ) ;
#115 = DIRECTION ( 'NONE',  ( 1.000000000000000000, 0.000000000000000000, 0.000000000000000000 ) ) ;
#116 = AXIS2_PLACEMENT_3D ( 'NONE', #304, #188, #282 ) ;
#117 = CARTESIAN_POINT ( 'NONE',  ( 0.000000000000000000, 0.000000000000000000, 253.0000000000000000 ) ) ;
#118 = VERTEX_POINT ( 'NONE', #150 ) ;
#119 = FACE_OUTER_BOUND ( 'NONE', #45, .T. ) ;
#120 = ORIENTED_EDGE ( 'NONE', *, *, #3, .T. ) ;
#121 = ORIENTED_EDGE ( 'NONE', *, *, #213, .F. ) ;
#122 = CARTESIAN_POINT ( 'NONE',  ( 5.000000000000000000, 6.123233995736766282E-16, 3.000000000000000000 ) ) ;
#123 = LOCAL_TIME ( 12, 3, 50.00000000000000000, #239 ) ;
#124 = DIRECTION ( 'NONE',  ( 1.000000000000000000, 0.000000000000000000, 0.000000000000000000 ) ) ;
#125 = ORGANIZATION ( 'NEURÈENÝ', 'NEURÈENÝ', '' ) ;
#126 = DATE_AND_TIME ( #168, #20 ) ;
#127 = CIRCLE ( 'NONE', #116, 5.000000000000000000 ) ;
#128 = PERSON_AND_ORGANIZATION ( #109, #125 ) ;
#129 = FACE_OUTER_BOUND ( 'NONE', #269, .T. ) ;
#130 = VERTEX_POINT ( 'NONE', #225 ) ;
#131 = CC_DESIGN_PERSON_AND_ORGANIZATION_ASSIGNMENT ( #207, #281, ( #288 ) ) ;
#132 = AXIS2_PLACEMENT_3D ( 'NONE', #270, #71, #94 ) ;
#133 = FACE_OUTER_BOUND ( 'NONE', #38, .T. ) ;
#134 = ORIENTED_EDGE ( 'NONE', *, *, #77, .F. ) ;
#135 = APPROVAL_STATUS ( 'not_yet_approved' ) ;
#136 = CARTESIAN_POINT ( 'NONE',  ( 0.000000000000000000, 0.000000000000000000, 0.000000000000000000 ) ) ;
#137 = DIRECTION ( 'NONE',  ( 1.000000000000000000, 0.000000000000000000, -0.000000000000000000 ) ) ;
#138 = ORIENTED_EDGE ( 'NONE', *, *, #29, .T. ) ;
#139 = AXIS2_PLACEMENT_3D ( 'NONE', #184, #40, #115 ) ;
#140 = CYLINDRICAL_SURFACE ( 'NONE', #298, 2.500000000000000000 ) ;
#141 = VERTEX_POINT ( 'NONE', #114 ) ;
#142 = ORIENTED_EDGE ( 'NONE', *, *, #32, .T. ) ;
#143 = DIRECTION ( 'NONE',  ( 0.000000000000000000, 0.000000000000000000, 1.000000000000000000 ) ) ;
#144 = FACE_OUTER_BOUND ( 'NONE', #155, .T. ) ;
#145 = APPROVAL ( #135, 'NEURÈENÝ' ) ;
#146 = PERSON_AND_ORGANIZATION ( #109, #125 ) ;
#147 = AXIS2_PLACEMENT_3D ( 'NONE', #159, #285, #257 ) ;
#148 = SECURITY_CLASSIFICATION ( '', '', #111 ) ;
#149 = DIRECTION ( 'NONE',  ( -1.000000000000000000, 0.000000000000000000, 0.000000000000000000 ) ) ;
#150 = CARTESIAN_POINT ( 'NONE',  ( -2.700000000000000178, 3.306546357697853733E-16, 3.000000000000004441 ) ) ;
#151 = ORIENTED_EDGE ( 'NONE', *, *, #262, .T. ) ;
#152 =( GEOMETRIC_REPRESENTATION_CONTEXT ( 3 ) GLOBAL_UNCERTAINTY_ASSIGNED_CONTEXT ( ( #169 ) ) GLOBAL_UNIT_ASSIGNED_CONTEXT ( ( #259, #54, #260 ) ) REPRESENTATION_CONTEXT ( 'NONE', 'WORKASPACE' ) );
#153 = DIRECTION ( 'NONE',  ( -1.000000000000000000, 0.000000000000000000, 0.000000000000000000 ) ) ;
#154 = DIRECTION ( 'NONE',  ( -1.000000000000000000, 0.000000000000000000, 0.000000000000000000 ) ) ;
#155 = EDGE_LOOP ( 'NONE', ( #252, #242, #294, #276 ) ) ;
#156 = DIRECTION ( 'NONE',  ( 0.000000000000000000, 0.000000000000000000, -1.000000000000000000 ) ) ;
#157 = ORIENTED_EDGE ( 'NONE', *, *, #209, .F. ) ;
#158 = LOCAL_TIME ( 12, 3, 50.00000000000000000, #31 ) ;
#159 = CARTESIAN_POINT ( 'NONE',  ( -2.700000000000000178, 3.306546357697853733E-16, 3.200000000000008171 ) ) ;
#160 = ORIENTED_EDGE ( 'NONE', *, *, #2, .F. ) ;
#161 = CARTESIAN_POINT ( 'NONE',  ( 0.000000000000000000, 0.000000000000000000, 3.000000000000000000 ) ) ;
#162 = DIRECTION ( 'NONE',  ( 1.000000000000000000, 0.000000000000000000, -0.000000000000000000 ) ) ;
#163 = DIRECTION ( 'NONE',  ( -0.000000000000000000, -0.000000000000000000, -1.000000000000000000 ) ) ;
#164 = CARTESIAN_POINT ( 'NONE',  ( 0.000000000000000000, 0.000000000000000000, 0.000000000000000000 ) ) ;
#165 = CC_DESIGN_PERSON_AND_ORGANIZATION_ASSIGNMENT ( #110, #58, ( #197 ) ) ;
#166 = CALENDAR_DATE ( 2022, 20, 6 ) ;
#167 = EDGE_CURVE ( 'NONE', #301, #299, #10, .T. ) ;
#168 = CALENDAR_DATE ( 2022, 20, 6 ) ;
#169 = UNCERTAINTY_MEASURE_WITH_UNIT (LENGTH_MEASURE( 1.000000000000000082E-05 ), #259, 'distance_accuracy_value', 'NONE');
#170 = CALENDAR_DATE ( 2022, 20, 6 ) ;
#171 = DATE_AND_TIME ( #218, #158 ) ;
#172 = AXIS2_PLACEMENT_3D ( 'NONE', #17, #248, #156 ) ;
#173 = EDGE_CURVE ( 'NONE', #112, #48, #261, .T. ) ;
#174 = DIRECTION ( 'NONE',  ( 1.000000000000000000, 0.000000000000000000, 0.000000000000000000 ) ) ;
#175 = ORIENTED_EDGE ( 'NONE', *, *, #187, .T. ) ;
#176 = FACE_OUTER_BOUND ( 'NONE', #303, .T. ) ;
#177 = EDGE_LOOP ( 'NONE', ( #208, #223, #195, #134 ) ) ;
#178 = AXIS2_PLACEMENT_3D ( 'NONE', #254, #1, #49 ) ;
#179 = DIRECTION ( 'NONE',  ( 0.000000000000000000, 0.000000000000000000, 1.000000000000000000 ) ) ;
#180 = ADVANCED_FACE ( 'NONE', ( #119 ), #96, .T. ) ;
#181 = EDGE_CURVE ( 'NONE', #98, #301, #245, .T. ) ;
#182 = DIRECTION ( 'NONE',  ( 1.000000000000000000, 0.000000000000000000, 0.000000000000000000 ) ) ;
#183 = VERTEX_POINT ( 'NONE', #101 ) ;
#184 = CARTESIAN_POINT ( 'NONE',  ( 0.000000000000000000, 0.000000000000000000, 0.000000000000000000 ) ) ;
#185 = ORIENTED_EDGE ( 'NONE', *, *, #19, .T. ) ;
#186 = CIRCLE ( 'NONE', #67, 2.500000000000000000 ) ;
#187 = EDGE_CURVE ( 'NONE', #130, #112, #73, .T. ) ;
#188 = DIRECTION ( 'NONE',  ( 0.000000000000000000, 0.000000000000000000, 1.000000000000000000 ) ) ;
#189 = CARTESIAN_POINT ( 'NONE',  ( 5.000000000000000000, 6.123233995736766282E-16, 0.000000000000000000 ) ) ;
#190 = VECTOR ( 'NONE', #300, 1000.000000000000000 ) ;
#191 = PLANE ( 'NONE',  #56 ) ;
#192 = DIRECTION ( 'NONE',  ( 0.000000000000000000, 0.000000000000000000, 1.000000000000000000 ) ) ;
#193 = APPROVAL_STATUS ( 'not_yet_approved' ) ;
#194 = AXIS2_PLACEMENT_3D ( 'NONE', #44, #22, #199 ) ;
#195 = ORIENTED_EDGE ( 'NONE', *, *, #262, .F. ) ;
#196 = CC_DESIGN_DATE_AND_TIME_ASSIGNMENT ( #126, #85, ( #148 ) ) ;
#197 = PRODUCT_DEFINITION_FORMATION_WITH_SPECIFIED_SOURCE ( 'LIBOVOLNÝ', '', #288, .NOT_KNOWN. ) ;
#198 = DIRECTION ( 'NONE',  ( 1.000000000000000000, 0.000000000000000000, 0.000000000000000000 ) ) ;
#199 = DIRECTION ( 'NONE',  ( 1.000000000000000000, 0.000000000000000000, 0.000000000000000000 ) ) ;
#200 = DIRECTION ( 'NONE',  ( -0.000000000000000000, -0.000000000000000000, -1.000000000000000000 ) ) ;
#201 = EDGE_CURVE ( 'NONE', #141, #130, #272, .T. ) ;
#202 = ORIENTED_EDGE ( 'NONE', *, *, #3, .F. ) ;
#203 = CARTESIAN_POINT ( 'NONE',  ( -5.000000000000000000, 0.000000000000000000, 3.000000000000000000 ) ) ;
#204 = ORIENTED_EDGE ( 'NONE', *, *, #2, .T. ) ;
#205 = CARTESIAN_POINT ( 'NONE',  ( 0.000000000000000000, 0.000000000000000000, 253.0000000000000000 ) ) ;
#206 = EDGE_LOOP ( 'NONE', ( #151, #204 ) ) ;
#207 = PERSON_AND_ORGANIZATION ( #109, #125 ) ;
#208 = ORIENTED_EDGE ( 'NONE', *, *, #173, .F. ) ;
#209 = EDGE_CURVE ( 'NONE', #112, #118, #241, .T. ) ;
#210 = DIRECTION ( 'NONE',  ( -0.000000000000000000, -0.000000000000000000, -1.000000000000000000 ) ) ;
#211 = DIRECTION ( 'NONE',  ( -0.000000000000000000, -0.000000000000000000, -1.000000000000000000 ) ) ;
#212 = APPLICATION_PROTOCOL_DEFINITION ( 'international standard', 'config_control_design', 1994, #33 ) ;
#213 = EDGE_CURVE ( 'NONE', #48, #112, #186, .T. ) ;
#214 = AXIS2_PLACEMENT_3D ( 'NONE', #80, #163, #102 ) ;
#215 = MANIFOLD_SOLID_BREP ( 'Zaoblit1', #307 ) ;
#216 = DATE_TIME_ROLE ( 'creation_date' ) ;
#217 = CIRCLE ( 'NONE', #172, 0.2000000000000000944 ) ;
#218 = CALENDAR_DATE ( 2022, 20, 6 ) ;
#219 = APPROVAL_DATE_TIME ( #59, #55 ) ;
#220 = APPROVAL ( #6, 'NEURÈENÝ' ) ;
#221 = DIRECTION ( 'NONE',  ( 0.000000000000000000, 0.000000000000000000, 1.000000000000000000 ) ) ;
#222 = TOROIDAL_SURFACE ( 'NONE', #194, 2.700000000000000178, 0.2000000000000000111 ) ;
#223 = ORIENTED_EDGE ( 'NONE', *, *, #209, .T. ) ;
#224 = DIRECTION ( 'NONE',  ( -0.000000000000000000, -0.000000000000000000, -1.000000000000000000 ) ) ;
#225 = CARTESIAN_POINT ( 'NONE',  ( -2.500000000000000000, 0.000000000000000000, 253.0000000000000000 ) ) ;
#226 = CARTESIAN_POINT ( 'NONE',  ( 2.500000000000000000, 3.061616997868383141E-16, 253.0000000000000000 ) ) ;
#227 = VECTOR ( 'NONE', #224, 1000.000000000000000 ) ;
#228 = EDGE_LOOP ( 'NONE', ( #88, #185 ) ) ;
#229 = CARTESIAN_POINT ( 'NONE',  ( 0.000000000000000000, 0.000000000000000000, 253.0000000000000000 ) ) ;
#230 = DIRECTION ( 'NONE',  ( -0.000000000000000000, -0.000000000000000000, -1.000000000000000000 ) ) ;
#231 = ORIENTED_EDGE ( 'NONE', *, *, #181, .F. ) ;
#232 = DIRECTION ( 'NONE',  ( 1.000000000000000000, 0.000000000000000000, 0.000000000000000000 ) ) ;
#233 = AXIS2_PLACEMENT_3D ( 'NONE', #103, #143, #232 ) ;
#234 = DIRECTION ( 'NONE',  ( 0.000000000000000000, 0.000000000000000000, 1.000000000000000000 ) ) ;
#235 = EDGE_CURVE ( 'NONE', #299, #301, #84, .T. ) ;
#236 = COORDINATED_UNIVERSAL_TIME_OFFSET ( 1, 0, .AHEAD. ) ;
#237 = MECHANICAL_CONTEXT ( 'NONE', #33, 'mechanical' ) ;
#238 = LOCAL_TIME ( 12, 3, 50.00000000000000000, #266 ) ;
#239 = COORDINATED_UNIVERSAL_TIME_OFFSET ( 1, 0, .AHEAD. ) ;
#240 = DATE_AND_TIME ( #166, #238 ) ;
#241 = CIRCLE ( 'NONE', #147, 0.2000000000000000944 ) ;
#242 = ORIENTED_EDGE ( 'NONE', *, *, #277, .F. ) ;
#243 = PRODUCT_DEFINITION_SHAPE ( 'NONE', 'NONE',  #264 ) ;
#244 = CALENDAR_DATE ( 2022, 20, 6 ) ;
#245 = LINE ( 'NONE', #271, #190 ) ;
#246 = LINE ( 'NONE', #37, #227 ) ;
#247 = VERTEX_POINT ( 'NONE', #122 ) ;
#248 = DIRECTION ( 'NONE',  ( 0.000000000000000000, -1.000000000000000000, 0.000000000000000000 ) ) ;
#249 = ORIENTED_EDGE ( 'NONE', *, *, #235, .F. ) ;
#250 = FACE_OUTER_BOUND ( 'NONE', #21, .T. ) ;
#251 = CIRCLE ( 'NONE', #60, 2.700000000000000178 ) ;
#252 = ORIENTED_EDGE ( 'NONE', *, *, #29, .F. ) ;
#253 = CC_DESIGN_PERSON_AND_ORGANIZATION_ASSIGNMENT ( #146, #61, ( #197 ) ) ;
#254 = CARTESIAN_POINT ( 'NONE',  ( 0.000000000000000000, 0.000000000000000000, 0.000000000000000000 ) ) ;
#255 = CARTESIAN_POINT ( 'NONE',  ( 0.000000000000000000, 0.000000000000000000, 3.000000000000000000 ) ) ;
#256 = PERSON_AND_ORGANIZATION ( #109, #125 ) ;
#257 = DIRECTION ( 'NONE',  ( -1.000000000000000000, 1.224646799147353207E-16, 0.000000000000000000 ) ) ;
#258 = CIRCLE ( 'NONE', #30, 2.700000000000000178 ) ;
#259 =( LENGTH_UNIT ( ) NAMED_UNIT ( * ) SI_UNIT ( .MILLI., .METRE. ) );
#260 =( NAMED_UNIT ( * ) SI_UNIT ( $, .STERADIAN. ) SOLID_ANGLE_UNIT ( ) );
#261 = CIRCLE ( 'NONE', #91, 2.500000000000000000 ) ;
#262 = EDGE_CURVE ( 'NONE', #183, #118, #251, .T. ) ;
#263 = APPROVAL_ROLE ( '' ) ;
#264 = PRODUCT_DEFINITION ( 'NEZNÁMÝ', '', #197, #290 ) ;
#265 = APPLICATION_CONTEXT ( 'configuration controlled 3d designs of mechanical parts and assemblies' ) ;
#266 = COORDINATED_UNIVERSAL_TIME_OFFSET ( 1, 0, .AHEAD. ) ;
#267 = TOROIDAL_SURFACE ( 'NONE', #27, 2.700000000000000178, 0.2000000000000000111 ) ;
#268 = CC_DESIGN_SECURITY_CLASSIFICATION ( #148, ( #197 ) ) ;
#269 = EDGE_LOOP ( 'NONE', ( #120, #291 ) ) ;
#270 = CARTESIAN_POINT ( 'NONE',  ( 0.000000000000000000, 0.000000000000000000, 3.000000000000000000 ) ) ;
#271 = CARTESIAN_POINT ( 'NONE',  ( -5.000000000000000000, 0.000000000000000000, 3.000000000000000000 ) ) ;
#272 = CIRCLE ( 'NONE', #233, 2.500000000000000000 ) ;
#273 = DIRECTION ( 'NONE',  ( 0.000000000000000000, 0.000000000000000000, 1.000000000000000000 ) ) ;
#274 = PLANE ( 'NONE',  #287 ) ;
#275 = CC_DESIGN_DATE_AND_TIME_ASSIGNMENT ( #171, #216, ( #264 ) ) ;
#276 = ORIENTED_EDGE ( 'NONE', *, *, #167, .T. ) ;
#277 = EDGE_CURVE ( 'NONE', #98, #247, #127, .T. ) ;
#278 = DIRECTION ( 'NONE',  ( -0.000000000000000000, -0.000000000000000000, -1.000000000000000000 ) ) ;
#279 = VECTOR ( 'NONE', #211, 1000.000000000000000 ) ;
#280 = DIRECTION ( 'NONE',  ( 1.000000000000000000, 0.000000000000000000, 0.000000000000000000 ) ) ;
#281 = PERSON_AND_ORGANIZATION_ROLE ( 'design_owner' ) ;
#282 = DIRECTION ( 'NONE',  ( 1.000000000000000000, 0.000000000000000000, 0.000000000000000000 ) ) ;
#283 = VECTOR ( 'NONE', #200, 1000.000000000000000 ) ;
#284 = LOCAL_TIME ( 12, 3, 50.00000000000000000, #236 ) ;
#285 = DIRECTION ( 'NONE',  ( 1.224646799147353207E-16, 1.000000000000000000, -0.000000000000000000 ) ) ;
#286 = APPROVAL_ROLE ( '' ) ;
#287 = AXIS2_PLACEMENT_3D ( 'NONE', #136, #179, #137 ) ;
#288 = PRODUCT ( '382c', '382c', '', ( #237 ) ) ;
#289 = ADVANCED_FACE ( 'NONE', ( #106, #79 ), #191, .T. ) ;
#290 = DESIGN_CONTEXT ( 'detailed design', #265, 'design' ) ;
#291 = ORIENTED_EDGE ( 'NONE', *, *, #201, .T. ) ;
#292 = CC_DESIGN_APPROVAL ( #55, ( #264 ) ) ;
#293 = PLANE ( 'NONE',  #39 ) ;
#294 = ORIENTED_EDGE ( 'NONE', *, *, #181, .T. ) ;
#295 = CARTESIAN_POINT ( 'NONE',  ( 0.000000000000000000, 0.000000000000000000, 3.000000000000000000 ) ) ;
#296 = ADVANCED_FACE ( 'NONE', ( #144 ), #28, .T. ) ;
#297 = LINE ( 'NONE', #226, #283 ) ;
#298 = AXIS2_PLACEMENT_3D ( 'NONE', #205, #87, #154 ) ;
#299 = VERTEX_POINT ( 'NONE', #189 ) ;
#300 = DIRECTION ( 'NONE',  ( -0.000000000000000000, -0.000000000000000000, -1.000000000000000000 ) ) ;
#301 = VERTEX_POINT ( 'NONE', #306 ) ;
#302 = DIRECTION ( 'NONE',  ( 0.000000000000000000, 0.000000000000000000, 1.000000000000000000 ) ) ;
#303 = EDGE_LOOP ( 'NONE', ( #24, #249 ) ) ;
#304 = CARTESIAN_POINT ( 'NONE',  ( 0.000000000000000000, 0.000000000000000000, 3.000000000000000000 ) ) ;
#305 = DIRECTION ( 'NONE',  ( 0.000000000000000000, 0.000000000000000000, 1.000000000000000000 ) ) ;
#306 = CARTESIAN_POINT ( 'NONE',  ( -5.000000000000000000, 0.000000000000000000, 0.000000000000000000 ) ) ;
#307 = CLOSED_SHELL ( 'NONE', ( #63, #81, #180, #296, #289, #69, #12, #43, #7 ) ) ;
ENDSEC;
END-ISO-10303-21;
