ISO-10303-21;
HEADER;
FILE_DESCRIPTION (( 'STEP AP203' ),
    '1' );
FILE_NAME ('7343.STEP',
    '2022-06-20T09:50:08',
    ( '' ),
    ( '' ),
    'SwSTEP 2.0',
    'SolidWorks 2019',
    '' );
FILE_SCHEMA (( 'CONFIG_CONTROL_DESIGN' ));
ENDSEC;

DATA;
#1 = LOCAL_TIME ( 11, 50, 8.000000000000000000, #174 ) ;
#2 = DIRECTION ( 'NONE',  ( 0.000000000000000000, 0.000000000000000000, 1.000000000000000000 ) ) ;
#3 = EDGE_CURVE ( 'NONE', #144, #287, #301, .T. ) ;
#4 = VECTOR ( 'NONE', #19, 1000.000000000000000 ) ;
#5 = EDGE_LOOP ( 'NONE', ( #170, #86, #285, #53 ) ) ;
#6 = EDGE_CURVE ( 'NONE', #244, #144, #133, .T. ) ;
#7 = VERTEX_POINT ( 'NONE', #82 ) ;
#8 = ORIENTED_EDGE ( 'NONE', *, *, #75, .T. ) ;
#9 = LOCAL_TIME ( 11, 50, 8.000000000000000000, #102 ) ;
#10 = CARTESIAN_POINT ( 'NONE',  ( 3.750000000000000000, 4.592425496802573972E-16, 5.199999999999982414 ) ) ;
#11 = ORIENTED_EDGE ( 'NONE', *, *, #6, .T. ) ;
#12 = EDGE_CURVE ( 'NONE', #231, #287, #216, .T. ) ;
#13 = DIRECTION ( 'NONE',  ( 1.000000000000000000, 0.000000000000000000, -0.000000000000000000 ) ) ;
#14 = VECTOR ( 'NONE', #45, 1000.000000000000000 ) ;
#15 = PERSON_AND_ORGANIZATION_ROLE ( 'creator' ) ;
#16 = PRODUCT_DEFINITION_FORMATION_WITH_SPECIFIED_SOURCE ( 'LIBOVOLNÝ', '', #87, .NOT_KNOWN. ) ;
#17 = CARTESIAN_POINT ( 'NONE',  ( -3.949999999999999734, 4.837354856632044071E-16, 5.199999999999982414 ) ) ;
#18 = PERSON_AND_ORGANIZATION ( #93, #298 ) ;
#19 = DIRECTION ( 'NONE',  ( -0.000000000000000000, -0.000000000000000000, -1.000000000000000000 ) ) ;
#20 = APPROVAL_ROLE ( '' ) ;
#21 = APPLICATION_CONTEXT ( 'configuration controlled 3d designs of mechanical parts and assemblies' ) ;
#22 = DIRECTION ( 'NONE',  ( -0.000000000000000000, -0.000000000000000000, -1.000000000000000000 ) ) ;
#23 = AXIS2_PLACEMENT_3D ( 'NONE', #203, #103, #132 ) ;
#24 = FACE_OUTER_BOUND ( 'NONE', #32, .T. ) ;
#25 = FACE_OUTER_BOUND ( 'NONE', #54, .T. ) ;
#26 = DIRECTION ( 'NONE',  ( 0.000000000000000000, 0.000000000000000000, 1.000000000000000000 ) ) ;
#27 = AXIS2_PLACEMENT_3D ( 'NONE', #141, #94, #194 ) ;
#28 = CARTESIAN_POINT ( 'NONE',  ( 6.000000000000000888, 7.347880794884120722E-16, 5.000000000000000000 ) ) ;
#29 = EDGE_CURVE ( 'NONE', #244, #231, #65, .T. ) ;
#30 = MANIFOLD_SOLID_BREP ( 'Zaoblit1', #267 ) ;
#31 = AXIS2_PLACEMENT_3D ( 'NONE', #257, #235, #300 ) ;
#32 = EDGE_LOOP ( 'NONE', ( #148, #190, #49, #265 ) ) ;
#33 = ORIENTED_EDGE ( 'NONE', *, *, #199, .T. ) ;
#34 = CIRCLE ( 'NONE', #189, 6.000000000000000888 ) ;
#35 = ADVANCED_BREP_SHAPE_REPRESENTATION ( '7343', ( #30, #27 ), #209 ) ;
#36 = CARTESIAN_POINT ( 'NONE',  ( 0.000000000000000000, 0.000000000000000000, 805.0000000000000000 ) ) ;
#37 = CALENDAR_DATE ( 2022, 20, 6 ) ;
#38 = CARTESIAN_POINT ( 'NONE',  ( 3.949999999999999734, 0.000000000000000000, 5.199999999999982414 ) ) ;
#39 = PERSON_AND_ORGANIZATION ( #93, #298 ) ;
#40 = CC_DESIGN_APPROVAL ( #162, ( #92 ) ) ;
#41 = EDGE_CURVE ( 'NONE', #287, #195, #142, .T. ) ;
#42 = FACE_BOUND ( 'NONE', #149, .T. ) ;
#43 = PERSON_AND_ORGANIZATION ( #93, #298 ) ;
#44 = CARTESIAN_POINT ( 'NONE',  ( 0.000000000000000000, 0.000000000000000000, 5.000000000000000000 ) ) ;
#45 = DIRECTION ( 'NONE',  ( -0.000000000000000000, -0.000000000000000000, -1.000000000000000000 ) ) ;
#46 = DIRECTION ( 'NONE',  ( 1.000000000000000000, 0.000000000000000000, 0.000000000000000000 ) ) ;
#47 = ADVANCED_FACE ( 'NONE', ( #208 ), #304, .F. ) ;
#48 = CIRCLE ( 'NONE', #290, 0.1999999999999996503 ) ;
#49 = ORIENTED_EDGE ( 'NONE', *, *, #120, .F. ) ;
#50 = CC_DESIGN_PERSON_AND_ORGANIZATION_ASSIGNMENT ( #230, #206, ( #16 ) ) ;
#51 = AXIS2_PLACEMENT_3D ( 'NONE', #139, #240, #137 ) ;
#52 = CC_DESIGN_APPROVAL ( #70, ( #16 ) ) ;
#53 = ORIENTED_EDGE ( 'NONE', *, *, #12, .T. ) ;
#54 = EDGE_LOOP ( 'NONE', ( #122, #71, #223, #193 ) ) ;
#55 = APPROVAL_PERSON_ORGANIZATION ( #271, #136, #276 ) ;
#56 =( NAMED_UNIT ( * ) SI_UNIT ( $, .STERADIAN. ) SOLID_ANGLE_UNIT ( ) );
#57 = DIRECTION ( 'NONE',  ( 1.000000000000000000, 0.000000000000000000, 0.000000000000000000 ) ) ;
#58 = APPROVAL_ROLE ( '' ) ;
#59 = FACE_OUTER_BOUND ( 'NONE', #73, .T. ) ;
#60 = APPROVAL_STATUS ( 'not_yet_approved' ) ;
#61 = DIRECTION ( 'NONE',  ( 0.000000000000000000, 0.000000000000000000, -1.000000000000000000 ) ) ;
#62 = APPROVAL_DATE_TIME ( #210, #162 ) ;
#63 = FACE_OUTER_BOUND ( 'NONE', #146, .T. ) ;
#64 = APPROVAL_STATUS ( 'not_yet_approved' ) ;
#65 = LINE ( 'NONE', #84, #297 ) ;
#66 = DATE_AND_TIME ( #181, #243 ) ;
#67 = DIRECTION ( 'NONE',  ( -0.000000000000000000, -0.000000000000000000, -1.000000000000000000 ) ) ;
#68 = EDGE_CURVE ( 'NONE', #231, #292, #48, .T. ) ;
#69 = CIRCLE ( 'NONE', #212, 3.949999999999999734 ) ;
#70 = APPROVAL ( #296, 'NEURÈENÝ' ) ;
#71 = ORIENTED_EDGE ( 'NONE', *, *, #109, .F. ) ;
#72 = CIRCLE ( 'NONE', #85, 6.000000000000000888 ) ;
#73 = EDGE_LOOP ( 'NONE', ( #289, #123, #198, #121 ) ) ;
#74 = CARTESIAN_POINT ( 'NONE',  ( 0.000000000000000000, 0.000000000000000000, 5.000000000000000000 ) ) ;
#75 = EDGE_CURVE ( 'NONE', #7, #166, #72, .T. ) ;
#76 = DIRECTION ( 'NONE',  ( -0.000000000000000000, -0.000000000000000000, -1.000000000000000000 ) ) ;
#77 = CARTESIAN_POINT ( 'NONE',  ( -6.000000000000000888, 0.000000000000000000, 5.000000000000000000 ) ) ;
#78 = PERSON_AND_ORGANIZATION_ROLE ( 'design_supplier' ) ;
#79 = CC_DESIGN_PERSON_AND_ORGANIZATION_ASSIGNMENT ( #39, #15, ( #277 ) ) ;
#80 = CARTESIAN_POINT ( 'NONE',  ( 3.750000000000000000, 4.592425496802573972E-16, 805.0000000000000000 ) ) ;
#81 = APPLICATION_PROTOCOL_DEFINITION ( 'international standard', 'config_control_design', 1994, #156 ) ;
#82 = CARTESIAN_POINT ( 'NONE',  ( 6.000000000000000888, 7.347880794884120722E-16, 5.000000000000000000 ) ) ;
#83 = PERSON_AND_ORGANIZATION_ROLE ( 'design_owner' ) ;
#84 = CARTESIAN_POINT ( 'NONE',  ( -3.750000000000000000, 0.000000000000000000, 805.0000000000000000 ) ) ;
#85 = AXIS2_PLACEMENT_3D ( 'NONE', #275, #177, #150 ) ;
#86 = ORIENTED_EDGE ( 'NONE', *, *, #6, .F. ) ;
#87 = PRODUCT ( '7343', '7343', '', ( #293 ) ) ;
#88 = COORDINATED_UNIVERSAL_TIME_OFFSET ( 1, 0, .AHEAD. ) ;
#89 = CARTESIAN_POINT ( 'NONE',  ( 0.000000000000000000, 0.000000000000000000, 5.000000000000000000 ) ) ;
#90 = AXIS2_PLACEMENT_3D ( 'NONE', #286, #217, #263 ) ;
#91 = CARTESIAN_POINT ( 'NONE',  ( 0.000000000000000000, 0.000000000000000000, 0.000000000000000000 ) ) ;
#92 = SECURITY_CLASSIFICATION ( '', '', #176 ) ;
#93 = PERSON ( 'NEURÈENÝ', 'NEURÈENÝ', 'NEURÈENÝ', ('NEURÈENÝ'), ('NEURÈENÝ'), ('NEURÈENÝ') ) ;
#94 = DIRECTION ( 'NONE',  ( 0.000000000000000000, 0.000000000000000000, 1.000000000000000000 ) ) ;
#95 = ORIENTED_EDGE ( 'NONE', *, *, #222, .T. ) ;
#96 = AXIS2_PLACEMENT_3D ( 'NONE', #36, #207, #158 ) ;
#97 = ORIENTED_EDGE ( 'NONE', *, *, #249, .F. ) ;
#98 = EDGE_LOOP ( 'NONE', ( #97, #266, #245, #242 ) ) ;
#99 = APPLICATION_PROTOCOL_DEFINITION ( 'international standard', 'config_control_design', 1994, #21 ) ;
#100 = FACE_OUTER_BOUND ( 'NONE', #101, .T. ) ;
#101 = EDGE_LOOP ( 'NONE', ( #95, #8 ) ) ;
#102 = COORDINATED_UNIVERSAL_TIME_OFFSET ( 1, 0, .AHEAD. ) ;
#103 = DIRECTION ( 'NONE',  ( 0.000000000000000000, 0.000000000000000000, 1.000000000000000000 ) ) ;
#104 = PERSON_AND_ORGANIZATION ( #93, #298 ) ;
#105 = DIRECTION ( 'NONE',  ( 0.000000000000000000, 0.000000000000000000, 1.000000000000000000 ) ) ;
#106 = DIRECTION ( 'NONE',  ( 0.000000000000000000, 0.000000000000000000, 1.000000000000000000 ) ) ;
#107 = AXIS2_PLACEMENT_3D ( 'NONE', #44, #273, #254 ) ;
#108 = CARTESIAN_POINT ( 'NONE',  ( 0.000000000000000000, 0.000000000000000000, 5.199999999999982414 ) ) ;
#109 = EDGE_CURVE ( 'NONE', #287, #231, #228, .T. ) ;
#110 = DIRECTION ( 'NONE',  ( 1.000000000000000000, 0.000000000000000000, 0.000000000000000000 ) ) ;
#111 = LINE ( 'NONE', #28, #202 ) ;
#112 = DIRECTION ( 'NONE',  ( -0.000000000000000000, -0.000000000000000000, -1.000000000000000000 ) ) ;
#113 = ADVANCED_FACE ( 'NONE', ( #63 ), #155, .T. ) ;
#114 = FACE_OUTER_BOUND ( 'NONE', #128, .T. ) ;
#115 = AXIS2_PLACEMENT_3D ( 'NONE', #302, #106, #57 ) ;
#116 = CIRCLE ( 'NONE', #262, 3.750000000000000000 ) ;
#117 = ORIENTED_EDGE ( 'NONE', *, *, #239, .T. ) ;
#118 = VERTEX_POINT ( 'NONE', #205 ) ;
#119 = DIRECTION ( 'NONE',  ( 1.000000000000000000, 0.000000000000000000, 0.000000000000000000 ) ) ;
#120 = EDGE_CURVE ( 'NONE', #195, #292, #247, .T. ) ;
#121 = ORIENTED_EDGE ( 'NONE', *, *, #29, .F. ) ;
#122 = ORIENTED_EDGE ( 'NONE', *, *, #68, .F. ) ;
#123 = ORIENTED_EDGE ( 'NONE', *, *, #3, .T. ) ;
#124 = CC_DESIGN_PERSON_AND_ORGANIZATION_ASSIGNMENT ( #104, #83, ( #87 ) ) ;
#125 = CARTESIAN_POINT ( 'NONE',  ( 3.750000000000000000, 4.592425496802573972E-16, 805.0000000000000000 ) ) ;
#126 = DIRECTION ( 'NONE',  ( 1.224646799147353207E-16, 1.000000000000000000, -0.000000000000000000 ) ) ;
#127 = APPROVAL_DATE_TIME ( #250, #70 ) ;
#128 = EDGE_LOOP ( 'NONE', ( #168, #140, #291, #196 ) ) ;
#129 = CALENDAR_DATE ( 2022, 20, 6 ) ;
#130 = ADVANCED_FACE ( 'NONE', ( #131 ), #157, .T. ) ;
#131 = FACE_OUTER_BOUND ( 'NONE', #5, .T. ) ;
#132 = DIRECTION ( 'NONE',  ( 1.000000000000000000, 0.000000000000000000, 0.000000000000000000 ) ) ;
#133 = CIRCLE ( 'NONE', #171, 3.750000000000000000 ) ;
#134 = AXIS2_PLACEMENT_3D ( 'NONE', #295, #175, #13 ) ;
#135 = DIRECTION ( 'NONE',  ( 0.000000000000000000, 0.000000000000000000, 1.000000000000000000 ) ) ;
#136 = APPROVAL ( #60, 'NEURÈENÝ' ) ;
#137 = DIRECTION ( 'NONE',  ( 1.000000000000000000, 0.000000000000000000, 0.000000000000000000 ) ) ;
#138 = AXIS2_PLACEMENT_3D ( 'NONE', #38, #248, #61 ) ;
#139 = CARTESIAN_POINT ( 'NONE',  ( 0.000000000000000000, 0.000000000000000000, 0.000000000000000000 ) ) ;
#140 = ORIENTED_EDGE ( 'NONE', *, *, #249, .T. ) ;
#141 = CARTESIAN_POINT ( 'NONE',  ( 0.000000000000000000, 0.000000000000000000, 0.000000000000000000 ) ) ;
#142 = CIRCLE ( 'NONE', #138, 0.1999999999999996503 ) ;
#143 = AXIS2_PLACEMENT_3D ( 'NONE', #74, #76, #169 ) ;
#144 = VERTEX_POINT ( 'NONE', #80 ) ;
#145 = ADVANCED_FACE ( 'NONE', ( #42, #100 ), #200, .T. ) ;
#146 = EDGE_LOOP ( 'NONE', ( #11, #33 ) ) ;
#147 = ORIENTED_EDGE ( 'NONE', *, *, #192, .F. ) ;
#148 = ORIENTED_EDGE ( 'NONE', *, *, #12, .F. ) ;
#149 = EDGE_LOOP ( 'NONE', ( #163, #117 ) ) ;
#150 = DIRECTION ( 'NONE',  ( 1.000000000000000000, 0.000000000000000000, 0.000000000000000000 ) ) ;
#151 = CARTESIAN_POINT ( 'NONE',  ( 0.000000000000000000, 0.000000000000000000, 805.0000000000000000 ) ) ;
#152 = AXIS2_PLACEMENT_3D ( 'NONE', #238, #26, #110 ) ;
#153 = SHAPE_DEFINITION_REPRESENTATION ( #234, #35 ) ;
#154 = PRODUCT_RELATED_PRODUCT_CATEGORY ( 'detail', '', ( #87 ) ) ;
#155 = PLANE ( 'NONE',  #161 ) ;
#156 = APPLICATION_CONTEXT ( 'configuration controlled 3d designs of mechanical parts and assemblies' ) ;
#157 = CYLINDRICAL_SURFACE ( 'NONE', #31, 3.750000000000000000 ) ;
#158 = DIRECTION ( 'NONE',  ( -1.000000000000000000, 0.000000000000000000, 0.000000000000000000 ) ) ;
#159 = AXIS2_PLACEMENT_3D ( 'NONE', #108, #211, #282 ) ;
#160 = DIRECTION ( 'NONE',  ( 1.000000000000000000, 0.000000000000000000, 0.000000000000000000 ) ) ;
#161 = AXIS2_PLACEMENT_3D ( 'NONE', #151, #226, #256 ) ;
#162 = APPROVAL ( #64, 'NEURÈENÝ' ) ;
#163 = ORIENTED_EDGE ( 'NONE', *, *, #120, .T. ) ;
#164 = CC_DESIGN_DATE_AND_TIME_ASSIGNMENT ( #232, #178, ( #92 ) ) ;
#165 = APPROVAL_PERSON_ORGANIZATION ( #252, #70, #20 ) ;
#166 = VERTEX_POINT ( 'NONE', #173 ) ;
#167 =( LENGTH_UNIT ( ) NAMED_UNIT ( * ) SI_UNIT ( .MILLI., .METRE. ) );
#168 = ORIENTED_EDGE ( 'NONE', *, *, #75, .F. ) ;
#169 = DIRECTION ( 'NONE',  ( -1.000000000000000000, 0.000000000000000000, 0.000000000000000000 ) ) ;
#170 = ORIENTED_EDGE ( 'NONE', *, *, #3, .F. ) ;
#171 = AXIS2_PLACEMENT_3D ( 'NONE', #229, #105, #182 ) ;
#172 = CC_DESIGN_SECURITY_CLASSIFICATION ( #92, ( #16 ) ) ;
#173 = CARTESIAN_POINT ( 'NONE',  ( -6.000000000000000888, 0.000000000000000000, 5.000000000000000000 ) ) ;
#174 = COORDINATED_UNIVERSAL_TIME_OFFSET ( 1, 0, .AHEAD. ) ;
#175 = DIRECTION ( 'NONE',  ( 0.000000000000000000, 0.000000000000000000, 1.000000000000000000 ) ) ;
#176 = SECURITY_CLASSIFICATION_LEVEL ( 'unclassified' ) ;
#177 = DIRECTION ( 'NONE',  ( 0.000000000000000000, 0.000000000000000000, 1.000000000000000000 ) ) ;
#178 = DATE_TIME_ROLE ( 'classification_date' ) ;
#179 = DIRECTION ( 'NONE',  ( 0.000000000000000000, 0.000000000000000000, 1.000000000000000000 ) ) ;
#180 = CC_DESIGN_APPROVAL ( #136, ( #277 ) ) ;
#181 = CALENDAR_DATE ( 2022, 20, 6 ) ;
#182 = DIRECTION ( 'NONE',  ( 1.000000000000000000, 0.000000000000000000, 0.000000000000000000 ) ) ;
#183 = DATE_AND_TIME ( #204, #9 ) ;
#184 = EDGE_CURVE ( 'NONE', #166, #118, #272, .T. ) ;
#185 = LOCAL_TIME ( 11, 50, 8.000000000000000000, #274 ) ;
#186 = LOCAL_TIME ( 11, 50, 8.000000000000000000, #303 ) ;
#187 = CARTESIAN_POINT ( 'NONE',  ( -3.750000000000000000, 0.000000000000000000, 5.199999999999982414 ) ) ;
#188 = ADVANCED_FACE ( 'NONE', ( #59 ), #270, .T. ) ;
#189 = AXIS2_PLACEMENT_3D ( 'NONE', #91, #135, #46 ) ;
#190 = ORIENTED_EDGE ( 'NONE', *, *, #68, .T. ) ;
#191 =( NAMED_UNIT ( * ) PLANE_ANGLE_UNIT ( ) SI_UNIT ( $, .RADIAN. ) );
#192 = EDGE_CURVE ( 'NONE', #118, #219, #34, .T. ) ;
#193 = ORIENTED_EDGE ( 'NONE', *, *, #239, .F. ) ;
#194 = DIRECTION ( 'NONE',  ( 1.000000000000000000, 0.000000000000000000, 0.000000000000000000 ) ) ;
#195 = VERTEX_POINT ( 'NONE', #213 ) ;
#196 = ORIENTED_EDGE ( 'NONE', *, *, #184, .F. ) ;
#197 = CYLINDRICAL_SURFACE ( 'NONE', #143, 6.000000000000000888 ) ;
#198 = ORIENTED_EDGE ( 'NONE', *, *, #109, .T. ) ;
#199 = EDGE_CURVE ( 'NONE', #144, #244, #116, .T. ) ;
#200 = PLANE ( 'NONE',  #134 ) ;
#201 = DATE_TIME_ROLE ( 'creation_date' ) ;
#202 = VECTOR ( 'NONE', #112, 1000.000000000000000 ) ;
#203 = CARTESIAN_POINT ( 'NONE',  ( 0.000000000000000000, 0.000000000000000000, 5.199999999999982414 ) ) ;
#204 = CALENDAR_DATE ( 2022, 20, 6 ) ;
#205 = CARTESIAN_POINT ( 'NONE',  ( -6.000000000000000888, 0.000000000000000000, 0.000000000000000000 ) ) ;
#206 = PERSON_AND_ORGANIZATION_ROLE ( 'creator' ) ;
#207 = DIRECTION ( 'NONE',  ( -0.000000000000000000, -0.000000000000000000, -1.000000000000000000 ) ) ;
#208 = FACE_OUTER_BOUND ( 'NONE', #246, .T. ) ;
#209 =( GEOMETRIC_REPRESENTATION_CONTEXT ( 3 ) GLOBAL_UNCERTAINTY_ASSIGNED_CONTEXT ( ( #288 ) ) GLOBAL_UNIT_ASSIGNED_CONTEXT ( ( #167, #191, #56 ) ) REPRESENTATION_CONTEXT ( 'NONE', 'WORKASPACE' ) );
#210 = DATE_AND_TIME ( #37, #185 ) ;
#211 = DIRECTION ( 'NONE',  ( 0.000000000000000000, 0.000000000000000000, 1.000000000000000000 ) ) ;
#212 = AXIS2_PLACEMENT_3D ( 'NONE', #89, #67, #160 ) ;
#213 = CARTESIAN_POINT ( 'NONE',  ( 3.949999999999999734, 0.000000000000000000, 4.999999999999991118 ) ) ;
#214 = CC_DESIGN_DATE_AND_TIME_ASSIGNMENT ( #183, #201, ( #277 ) ) ;
#215 = CARTESIAN_POINT ( 'NONE',  ( 0.000000000000000000, 0.000000000000000000, 5.199999999999982414 ) ) ;
#216 = CIRCLE ( 'NONE', #115, 3.750000000000000000 ) ;
#217 = DIRECTION ( 'NONE',  ( -0.000000000000000000, -0.000000000000000000, -1.000000000000000000 ) ) ;
#218 = CARTESIAN_POINT ( 'NONE',  ( -3.949999999999999734, 4.837354856632044071E-16, 4.999999999999991118 ) ) ;
#219 = VERTEX_POINT ( 'NONE', #261 ) ;
#220 = CYLINDRICAL_SURFACE ( 'NONE', #90, 6.000000000000000888 ) ;
#221 = CIRCLE ( 'NONE', #152, 6.000000000000000888 ) ;
#222 = EDGE_CURVE ( 'NONE', #166, #7, #221, .T. ) ;
#223 = ORIENTED_EDGE ( 'NONE', *, *, #41, .T. ) ;
#224 = APPROVAL_DATE_TIME ( #66, #136 ) ;
#225 = DESIGN_CONTEXT ( 'detailed design', #156, 'design' ) ;
#226 = DIRECTION ( 'NONE',  ( 0.000000000000000000, 0.000000000000000000, 1.000000000000000000 ) ) ;
#227 = ADVANCED_FACE ( 'NONE', ( #25 ), #284, .F. ) ;
#228 = CIRCLE ( 'NONE', #23, 3.750000000000000000 ) ;
#229 = CARTESIAN_POINT ( 'NONE',  ( 0.000000000000000000, 0.000000000000000000, 805.0000000000000000 ) ) ;
#230 = PERSON_AND_ORGANIZATION ( #93, #298 ) ;
#231 = VERTEX_POINT ( 'NONE', #187 ) ;
#232 = DATE_AND_TIME ( #305, #1 ) ;
#233 = DIRECTION ( 'NONE',  ( 1.000000000000000000, 0.000000000000000000, -0.000000000000000000 ) ) ;
#234 = PRODUCT_DEFINITION_SHAPE ( 'NONE', 'NONE',  #277 ) ;
#235 = DIRECTION ( 'NONE',  ( -0.000000000000000000, -0.000000000000000000, -1.000000000000000000 ) ) ;
#236 = AXIS2_PLACEMENT_3D ( 'NONE', #278, #179, #233 ) ;
#237 = CARTESIAN_POINT ( 'NONE',  ( 0.000000000000000000, 0.000000000000000000, 805.0000000000000000 ) ) ;
#238 = CARTESIAN_POINT ( 'NONE',  ( 0.000000000000000000, 0.000000000000000000, 5.000000000000000000 ) ) ;
#239 = EDGE_CURVE ( 'NONE', #292, #195, #69, .T. ) ;
#240 = DIRECTION ( 'NONE',  ( 0.000000000000000000, 0.000000000000000000, 1.000000000000000000 ) ) ;
#241 = EDGE_CURVE ( 'NONE', #219, #118, #253, .T. ) ;
#242 = ORIENTED_EDGE ( 'NONE', *, *, #192, .T. ) ;
#243 = LOCAL_TIME ( 11, 50, 8.000000000000000000, #88 ) ;
#244 = VERTEX_POINT ( 'NONE', #260 ) ;
#245 = ORIENTED_EDGE ( 'NONE', *, *, #184, .T. ) ;
#246 = EDGE_LOOP ( 'NONE', ( #147, #264 ) ) ;
#247 = CIRCLE ( 'NONE', #107, 3.949999999999999734 ) ;
#248 = DIRECTION ( 'NONE',  ( 0.000000000000000000, -1.000000000000000000, 0.000000000000000000 ) ) ;
#249 = EDGE_CURVE ( 'NONE', #7, #219, #111, .T. ) ;
#250 = DATE_AND_TIME ( #129, #186 ) ;
#251 = DIRECTION ( 'NONE',  ( -1.000000000000000000, 1.224646799147353454E-16, 0.000000000000000000 ) ) ;
#252 = PERSON_AND_ORGANIZATION ( #93, #298 ) ;
#253 = CIRCLE ( 'NONE', #51, 6.000000000000000888 ) ;
#254 = DIRECTION ( 'NONE',  ( 1.000000000000000000, 0.000000000000000000, 0.000000000000000000 ) ) ;
#255 = PERSON_AND_ORGANIZATION ( #93, #298 ) ;
#256 = DIRECTION ( 'NONE',  ( 1.000000000000000000, 0.000000000000000000, -0.000000000000000000 ) ) ;
#257 = CARTESIAN_POINT ( 'NONE',  ( 0.000000000000000000, 0.000000000000000000, 805.0000000000000000 ) ) ;
#258 = AXIS2_PLACEMENT_3D ( 'NONE', #215, #283, #119 ) ;
#259 = ADVANCED_FACE ( 'NONE', ( #24 ), #280, .F. ) ;
#260 = CARTESIAN_POINT ( 'NONE',  ( -3.750000000000000000, 0.000000000000000000, 805.0000000000000000 ) ) ;
#261 = CARTESIAN_POINT ( 'NONE',  ( 6.000000000000000888, 7.347880794884120722E-16, 0.000000000000000000 ) ) ;
#262 = AXIS2_PLACEMENT_3D ( 'NONE', #237, #2, #306 ) ;
#263 = DIRECTION ( 'NONE',  ( -1.000000000000000000, 0.000000000000000000, 0.000000000000000000 ) ) ;
#264 = ORIENTED_EDGE ( 'NONE', *, *, #241, .F. ) ;
#265 = ORIENTED_EDGE ( 'NONE', *, *, #41, .F. ) ;
#266 = ORIENTED_EDGE ( 'NONE', *, *, #222, .F. ) ;
#267 = CLOSED_SHELL ( 'NONE', ( #259, #188, #294, #281, #145, #47, #130, #113, #227 ) ) ;
#268 = APPROVAL_PERSON_ORGANIZATION ( #43, #162, #58 ) ;
#269 = CC_DESIGN_PERSON_AND_ORGANIZATION_ASSIGNMENT ( #255, #78, ( #16 ) ) ;
#270 = CYLINDRICAL_SURFACE ( 'NONE', #96, 3.750000000000000000 ) ;
#271 = PERSON_AND_ORGANIZATION ( #93, #298 ) ;
#272 = LINE ( 'NONE', #77, #4 ) ;
#273 = DIRECTION ( 'NONE',  ( -0.000000000000000000, -0.000000000000000000, -1.000000000000000000 ) ) ;
#274 = COORDINATED_UNIVERSAL_TIME_OFFSET ( 1, 0, .AHEAD. ) ;
#275 = CARTESIAN_POINT ( 'NONE',  ( 0.000000000000000000, 0.000000000000000000, 5.000000000000000000 ) ) ;
#276 = APPROVAL_ROLE ( '' ) ;
#277 = PRODUCT_DEFINITION ( 'NEZNÁMÝ', '', #16, #225 ) ;
#278 = CARTESIAN_POINT ( 'NONE',  ( 0.000000000000000000, 0.000000000000000000, 0.000000000000000000 ) ) ;
#279 = PERSON_AND_ORGANIZATION_ROLE ( 'classification_officer' ) ;
#280 = TOROIDAL_SURFACE ( 'NONE', #258, 3.949999999999999734, 0.2000000000000000111 ) ;
#281 = ADVANCED_FACE ( 'NONE', ( #299 ), #220, .T. ) ;
#282 = DIRECTION ( 'NONE',  ( 1.000000000000000000, 0.000000000000000000, 0.000000000000000000 ) ) ;
#283 = DIRECTION ( 'NONE',  ( 0.000000000000000000, 0.000000000000000000, 1.000000000000000000 ) ) ;
#284 = TOROIDAL_SURFACE ( 'NONE', #159, 3.949999999999999734, 0.2000000000000000111 ) ;
#285 = ORIENTED_EDGE ( 'NONE', *, *, #29, .T. ) ;
#286 = CARTESIAN_POINT ( 'NONE',  ( 0.000000000000000000, 0.000000000000000000, 5.000000000000000000 ) ) ;
#287 = VERTEX_POINT ( 'NONE', #10 ) ;
#288 = UNCERTAINTY_MEASURE_WITH_UNIT (LENGTH_MEASURE( 1.000000000000000082E-05 ), #167, 'distance_accuracy_value', 'NONE');
#289 = ORIENTED_EDGE ( 'NONE', *, *, #199, .F. ) ;
#290 = AXIS2_PLACEMENT_3D ( 'NONE', #17, #126, #251 ) ;
#291 = ORIENTED_EDGE ( 'NONE', *, *, #241, .T. ) ;
#292 = VERTEX_POINT ( 'NONE', #218 ) ;
#293 = MECHANICAL_CONTEXT ( 'NONE', #21, 'mechanical' ) ;
#294 = ADVANCED_FACE ( 'NONE', ( #114 ), #197, .T. ) ;
#295 = CARTESIAN_POINT ( 'NONE',  ( 0.000000000000000000, 0.000000000000000000, 5.000000000000000000 ) ) ;
#296 = APPROVAL_STATUS ( 'not_yet_approved' ) ;
#297 = VECTOR ( 'NONE', #22, 1000.000000000000000 ) ;
#298 = ORGANIZATION ( 'NEURÈENÝ', 'NEURÈENÝ', '' ) ;
#299 = FACE_OUTER_BOUND ( 'NONE', #98, .T. ) ;
#300 = DIRECTION ( 'NONE',  ( -1.000000000000000000, 0.000000000000000000, 0.000000000000000000 ) ) ;
#301 = LINE ( 'NONE', #125, #14 ) ;
#302 = CARTESIAN_POINT ( 'NONE',  ( 0.000000000000000000, 0.000000000000000000, 5.199999999999982414 ) ) ;
#303 = COORDINATED_UNIVERSAL_TIME_OFFSET ( 1, 0, .AHEAD. ) ;
#304 = PLANE ( 'NONE',  #236 ) ;
#305 = CALENDAR_DATE ( 2022, 20, 6 ) ;
#306 = DIRECTION ( 'NONE',  ( 1.000000000000000000, 0.000000000000000000, 0.000000000000000000 ) ) ;
#307 = CC_DESIGN_PERSON_AND_ORGANIZATION_ASSIGNMENT ( #18, #279, ( #92 ) ) ;
ENDSEC;
END-ISO-10303-21;
