ISO-10303-21;
HEADER;
FILE_DESCRIPTION (( 'STEP AP203' ),
    '1' );
FILE_NAME ('8b08.STEP',
    '2022-06-20T10:10:17',
    ( '' ),
    ( '' ),
    'SwSTEP 2.0',
    'SolidWorks 2019',
    '' );
FILE_SCHEMA (( 'CONFIG_CONTROL_DESIGN' ));
ENDSEC;

DATA;
#1 = AXIS2_PLACEMENT_3D ( 'NONE', #177, #151, #223 ) ;
#2 = ORIENTED_EDGE ( 'NONE', *, *, #143, .T. ) ;
#3 = EDGE_CURVE ( 'NONE', #22, #304, #5, .T. ) ;
#4 = DIRECTION ( 'NONE',  ( 1.000000000000000000, 0.000000000000000000, 0.000000000000000000 ) ) ;
#5 = LINE ( 'NONE', #261, #247 ) ;
#6 = APPROVAL_PERSON_ORGANIZATION ( #39, #15, #161 ) ;
#7 = ORIENTED_EDGE ( 'NONE', *, *, #110, .F. ) ;
#8 = EDGE_CURVE ( 'NONE', #172, #290, #27, .T. ) ;
#9 = DIRECTION ( 'NONE',  ( 0.000000000000000000, 0.000000000000000000, 1.000000000000000000 ) ) ;
#10 = CARTESIAN_POINT ( 'NONE',  ( 0.000000000000000000, 0.000000000000000000, 0.000000000000000000 ) ) ;
#11 = DIRECTION ( 'NONE',  ( 1.000000000000000000, 0.000000000000000000, -0.000000000000000000 ) ) ;
#12 = CC_DESIGN_PERSON_AND_ORGANIZATION_ASSIGNMENT ( #70, #306, ( #137 ) ) ;
#13 = PLANE ( 'NONE',  #187 ) ;
#14 = CARTESIAN_POINT ( 'NONE',  ( -4.000000000000000000, 0.000000000000000000, 0.000000000000000000 ) ) ;
#15 = APPROVAL ( #255, 'NEURÈENÝ' ) ;
#16 = FACE_OUTER_BOUND ( 'NONE', #213, .T. ) ;
#17 = PRODUCT_DEFINITION_FORMATION_WITH_SPECIFIED_SOURCE ( 'LIBOVOLNÝ', '', #263, .NOT_KNOWN. ) ;
#18 = APPROVAL_STATUS ( 'not_yet_approved' ) ;
#19 = MANIFOLD_SOLID_BREP ( 'Zaoblit1', #114 ) ;
#20 = APPROVAL_DATE_TIME ( #95, #15 ) ;
#21 = ORIENTED_EDGE ( 'NONE', *, *, #8, .F. ) ;
#22 = VERTEX_POINT ( 'NONE', #258 ) ;
#23 = AXIS2_PLACEMENT_3D ( 'NONE', #266, #296, #11 ) ;
#24 = ADVANCED_FACE ( 'NONE', ( #123 ), #32, .T. ) ;
#25 = DATE_TIME_ROLE ( 'creation_date' ) ;
#26 = ORIENTED_EDGE ( 'NONE', *, *, #292, .F. ) ;
#27 = CIRCLE ( 'NONE', #199, 0.2000000000000000944 ) ;
#28 = PRODUCT_RELATED_PRODUCT_CATEGORY ( 'detail', '', ( #263 ) ) ;
#29 = ORIENTED_EDGE ( 'NONE', *, *, #265, .T. ) ;
#30 = DIRECTION ( 'NONE',  ( 0.000000000000000000, 0.000000000000000000, 1.000000000000000000 ) ) ;
#31 = DIRECTION ( 'NONE',  ( 1.000000000000000000, 0.000000000000000000, 0.000000000000000000 ) ) ;
#32 = CYLINDRICAL_SURFACE ( 'NONE', #91, 2.000000000000000000 ) ;
#33 = CARTESIAN_POINT ( 'NONE',  ( 0.000000000000000000, 0.000000000000000000, 3.000000000000000000 ) ) ;
#34 = CARTESIAN_POINT ( 'NONE',  ( 0.000000000000000000, 0.000000000000000000, 3.199999999999994404 ) ) ;
#35 = VECTOR ( 'NONE', #154, 1000.000000000000000 ) ;
#36 = CARTESIAN_POINT ( 'NONE',  ( -2.000000000000000000, 0.000000000000000000, 103.0000000000000142 ) ) ;
#37 = DIRECTION ( 'NONE',  ( -0.000000000000000000, -0.000000000000000000, -1.000000000000000000 ) ) ;
#38 = DIRECTION ( 'NONE',  ( 1.000000000000000000, 0.000000000000000000, 0.000000000000000000 ) ) ;
#39 = PERSON_AND_ORGANIZATION ( #158, #55 ) ;
#40 = CALENDAR_DATE ( 2022, 20, 6 ) ;
#41 = EDGE_LOOP ( 'NONE', ( #212, #100 ) ) ;
#42 = PERSON_AND_ORGANIZATION ( #158, #55 ) ;
#43 = EDGE_LOOP ( 'NONE', ( #2, #254 ) ) ;
#44 = SECURITY_CLASSIFICATION_LEVEL ( 'unclassified' ) ;
#45 = VERTEX_POINT ( 'NONE', #234 ) ;
#46 = AXIS2_PLACEMENT_3D ( 'NONE', #87, #218, #157 ) ;
#47 = DIRECTION ( 'NONE',  ( 0.000000000000000000, 0.000000000000000000, 1.000000000000000000 ) ) ;
#48 = ORIENTED_EDGE ( 'NONE', *, *, #281, .F. ) ;
#49 = ORIENTED_EDGE ( 'NONE', *, *, #120, .T. ) ;
#50 = CARTESIAN_POINT ( 'NONE',  ( 0.000000000000000000, 0.000000000000000000, 3.000000000000000000 ) ) ;
#51 = AXIS2_PLACEMENT_3D ( 'NONE', #108, #200, #268 ) ;
#52 = DIRECTION ( 'NONE',  ( -1.000000000000000000, 0.000000000000000000, 0.000000000000000000 ) ) ;
#53 = ORIENTED_EDGE ( 'NONE', *, *, #120, .F. ) ;
#54 = DIRECTION ( 'NONE',  ( 0.000000000000000000, 0.000000000000000000, 1.000000000000000000 ) ) ;
#55 = ORGANIZATION ( 'NEURÈENÝ', 'NEURÈENÝ', '' ) ;
#56 = CARTESIAN_POINT ( 'NONE',  ( 0.000000000000000000, 0.000000000000000000, 3.000000000000000000 ) ) ;
#57 = CARTESIAN_POINT ( 'NONE',  ( -4.000000000000000000, 0.000000000000000000, 3.000000000000000000 ) ) ;
#58 = CYLINDRICAL_SURFACE ( 'NONE', #51, 4.000000000000000000 ) ;
#59 = CIRCLE ( 'NONE', #229, 4.000000000000000000 ) ;
#60 = CIRCLE ( 'NONE', #101, 0.2000000000000000944 ) ;
#61 = CIRCLE ( 'NONE', #1, 2.200000000000000178 ) ;
#62 = CARTESIAN_POINT ( 'NONE',  ( 0.000000000000000000, 0.000000000000000000, 0.000000000000000000 ) ) ;
#63 = PRODUCT_DEFINITION_SHAPE ( 'NONE', 'NONE',  #137 ) ;
#64 = PLANE ( 'NONE',  #302 ) ;
#65 = APPROVAL_ROLE ( '' ) ;
#66 = ORIENTED_EDGE ( 'NONE', *, *, #73, .F. ) ;
#67 = DATE_AND_TIME ( #116, #78 ) ;
#68 = CC_DESIGN_APPROVAL ( #124, ( #137 ) ) ;
#69 = PERSON_AND_ORGANIZATION_ROLE ( 'classification_officer' ) ;
#70 = PERSON_AND_ORGANIZATION ( #158, #55 ) ;
#71 = DATE_TIME_ROLE ( 'classification_date' ) ;
#72 = ORIENTED_EDGE ( 'NONE', *, *, #239, .T. ) ;
#73 = EDGE_CURVE ( 'NONE', #169, #172, #97, .T. ) ;
#74 = DIRECTION ( 'NONE',  ( 0.000000000000000000, 0.000000000000000000, -1.000000000000000000 ) ) ;
#75 = DIRECTION ( 'NONE',  ( -0.000000000000000000, -0.000000000000000000, -1.000000000000000000 ) ) ;
#76 = ORIENTED_EDGE ( 'NONE', *, *, #211, .T. ) ;
#77 = CIRCLE ( 'NONE', #194, 2.000000000000000000 ) ;
#78 = LOCAL_TIME ( 12, 10, 17.00000000000000000, #160 ) ;
#79 = EDGE_CURVE ( 'NONE', #169, #98, #180, .T. ) ;
#80 = DIRECTION ( 'NONE',  ( 1.000000000000000000, 0.000000000000000000, 0.000000000000000000 ) ) ;
#81 = ORIENTED_EDGE ( 'NONE', *, *, #3, .T. ) ;
#82 = FACE_OUTER_BOUND ( 'NONE', #125, .T. ) ;
#83 = ADVANCED_FACE ( 'NONE', ( #173 ), #286, .F. ) ;
#84 = AXIS2_PLACEMENT_3D ( 'NONE', #56, #198, #86 ) ;
#85 = DIRECTION ( 'NONE',  ( 0.000000000000000000, 0.000000000000000000, 1.000000000000000000 ) ) ;
#86 = DIRECTION ( 'NONE',  ( -1.000000000000000000, 0.000000000000000000, 0.000000000000000000 ) ) ;
#87 = CARTESIAN_POINT ( 'NONE',  ( 0.000000000000000000, 0.000000000000000000, 3.000000000000000000 ) ) ;
#88 = DATE_AND_TIME ( #252, #142 ) ;
#89 = DIRECTION ( 'NONE',  ( 0.000000000000000000, 0.000000000000000000, 1.000000000000000000 ) ) ;
#90 = APPLICATION_PROTOCOL_DEFINITION ( 'international standard', 'config_control_design', 1994, #270 ) ;
#91 = AXIS2_PLACEMENT_3D ( 'NONE', #215, #75, #52 ) ;
#92 = PERSON_AND_ORGANIZATION ( #158, #55 ) ;
#93 = ORIENTED_EDGE ( 'NONE', *, *, #79, .F. ) ;
#94 = APPROVAL_STATUS ( 'not_yet_approved' ) ;
#95 = DATE_AND_TIME ( #168, #282 ) ;
#96 = TOROIDAL_SURFACE ( 'NONE', #176, 2.200000000000000178, 0.2000000000000000111 ) ;
#97 = LINE ( 'NONE', #170, #105 ) ;
#98 = VERTEX_POINT ( 'NONE', #102 ) ;
#99 = CIRCLE ( 'NONE', #271, 4.000000000000000000 ) ;
#100 = ORIENTED_EDGE ( 'NONE', *, *, #292, .T. ) ;
#101 = AXIS2_PLACEMENT_3D ( 'NONE', #202, #111, #150 ) ;
#102 = CARTESIAN_POINT ( 'NONE',  ( -2.000000000000000000, 0.000000000000000000, 103.0000000000000142 ) ) ;
#103 = ORIENTED_EDGE ( 'NONE', *, *, #239, .F. ) ;
#104 = CC_DESIGN_DATE_AND_TIME_ASSIGNMENT ( #303, #71, ( #243 ) ) ;
#105 = VECTOR ( 'NONE', #262, 1000.000000000000000 ) ;
#106 = DIRECTION ( 'NONE',  ( 0.000000000000000000, 0.000000000000000000, 1.000000000000000000 ) ) ;
#107 = AXIS2_PLACEMENT_3D ( 'NONE', #294, #89, #38 ) ;
#108 = CARTESIAN_POINT ( 'NONE',  ( 0.000000000000000000, 0.000000000000000000, 3.000000000000000000 ) ) ;
#109 = DIRECTION ( 'NONE',  ( 0.000000000000000000, 0.000000000000000000, 1.000000000000000000 ) ) ;
#110 = EDGE_CURVE ( 'NONE', #45, #22, #59, .T. ) ;
#111 = DIRECTION ( 'NONE',  ( 1.224646799147353207E-16, 1.000000000000000000, -0.000000000000000000 ) ) ;
#112 = COORDINATED_UNIVERSAL_TIME_OFFSET ( 1, 0, .AHEAD. ) ;
#113 =( LENGTH_UNIT ( ) NAMED_UNIT ( * ) SI_UNIT ( .MILLI., .METRE. ) );
#114 = CLOSED_SHELL ( 'NONE', ( #83, #232, #178, #205, #201, #222, #24, #185, #305 ) ) ;
#115 = ORIENTED_EDGE ( 'NONE', *, *, #143, .F. ) ;
#116 = CALENDAR_DATE ( 2022, 20, 6 ) ;
#117 = EDGE_LOOP ( 'NONE', ( #66, #115, #214, #72 ) ) ;
#118 = DIRECTION ( 'NONE',  ( 1.000000000000000000, 0.000000000000000000, 0.000000000000000000 ) ) ;
#119 = ORIENTED_EDGE ( 'NONE', *, *, #8, .T. ) ;
#120 = EDGE_CURVE ( 'NONE', #304, #249, #99, .T. ) ;
#121 = ORIENTED_EDGE ( 'NONE', *, *, #191, .F. ) ;
#122 = CC_DESIGN_SECURITY_CLASSIFICATION ( #243, ( #17 ) ) ;
#123 = FACE_OUTER_BOUND ( 'NONE', #117, .T. ) ;
#124 = APPROVAL ( #18, 'NEURÈENÝ' ) ;
#125 = EDGE_LOOP ( 'NONE', ( #48, #53 ) ) ;
#126 = CARTESIAN_POINT ( 'NONE',  ( 0.000000000000000000, 0.000000000000000000, 103.0000000000000142 ) ) ;
#127 = LOCAL_TIME ( 12, 10, 17.00000000000000000, #112 ) ;
#128 = EDGE_CURVE ( 'NONE', #290, #283, #141, .T. ) ;
#129 = CARTESIAN_POINT ( 'NONE',  ( 2.000000000000000000, 2.449293598294706414E-16, 103.0000000000000142 ) ) ;
#130 = APPROVAL_ROLE ( '' ) ;
#131 = LINE ( 'NONE', #36, #288 ) ;
#132 = FACE_OUTER_BOUND ( 'NONE', #43, .T. ) ;
#133 = CYLINDRICAL_SURFACE ( 'NONE', #207, 2.000000000000000000 ) ;
#134 = DIRECTION ( 'NONE',  ( 1.000000000000000000, 0.000000000000000000, 0.000000000000000000 ) ) ;
#135 = CARTESIAN_POINT ( 'NONE',  ( 2.200000000000000178, 0.000000000000000000, 2.999999999999997335 ) ) ;
#136 = APPLICATION_CONTEXT ( 'configuration controlled 3d designs of mechanical parts and assemblies' ) ;
#137 = PRODUCT_DEFINITION ( 'NEZNÁMÝ', '', #17, #272 ) ;
#138 = EDGE_LOOP ( 'NONE', ( #189, #29 ) ) ;
#139 = PERSON_AND_ORGANIZATION ( #158, #55 ) ;
#140 = ORIENTED_EDGE ( 'NONE', *, *, #285, .F. ) ;
#141 = CIRCLE ( 'NONE', #153, 2.200000000000000178 ) ;
#142 = LOCAL_TIME ( 12, 10, 17.00000000000000000, #181 ) ;
#143 = EDGE_CURVE ( 'NONE', #98, #169, #193, .T. ) ;
#144 = ORIENTED_EDGE ( 'NONE', *, *, #211, .F. ) ;
#145 = CC_DESIGN_PERSON_AND_ORGANIZATION_ASSIGNMENT ( #92, #225, ( #263 ) ) ;
#146 = EDGE_LOOP ( 'NONE', ( #280, #81, #49, #144 ) ) ;
#147 = CARTESIAN_POINT ( 'NONE',  ( 0.000000000000000000, 0.000000000000000000, 103.0000000000000142 ) ) ;
#148 = CARTESIAN_POINT ( 'NONE',  ( 2.200000000000000178, 0.000000000000000000, 3.199999999999994404 ) ) ;
#149 = CARTESIAN_POINT ( 'NONE',  ( 2.000000000000000000, 2.449293598294706414E-16, 3.199999999999994404 ) ) ;
#150 = DIRECTION ( 'NONE',  ( -1.000000000000000000, 1.224646799147353207E-16, 0.000000000000000000 ) ) ;
#151 = DIRECTION ( 'NONE',  ( -0.000000000000000000, -0.000000000000000000, -1.000000000000000000 ) ) ;
#152 = AXIS2_PLACEMENT_3D ( 'NONE', #235, #9, #31 ) ;
#153 = AXIS2_PLACEMENT_3D ( 'NONE', #33, #264, #287 ) ;
#154 = DIRECTION ( 'NONE',  ( -0.000000000000000000, -0.000000000000000000, -1.000000000000000000 ) ) ;
#155 = CC_DESIGN_DATE_AND_TIME_ASSIGNMENT ( #206, #25, ( #137 ) ) ;
#156 = CC_DESIGN_APPROVAL ( #166, ( #243 ) ) ;
#157 = DIRECTION ( 'NONE',  ( 1.000000000000000000, 0.000000000000000000, 0.000000000000000000 ) ) ;
#158 = PERSON ( 'NEURÈENÝ', 'NEURÈENÝ', 'NEURÈENÝ', ('NEURÈENÝ'), ('NEURÈENÝ'), ('NEURÈENÝ') ) ;
#159 = CARTESIAN_POINT ( 'NONE',  ( 0.000000000000000000, 0.000000000000000000, 103.0000000000000142 ) ) ;
#160 = COORDINATED_UNIVERSAL_TIME_OFFSET ( 1, 0, .AHEAD. ) ;
#161 = APPROVAL_ROLE ( '' ) ;
#162 = APPROVAL_DATE_TIME ( #88, #166 ) ;
#163 = CARTESIAN_POINT ( 'NONE',  ( 0.000000000000000000, 0.000000000000000000, 3.199999999999994404 ) ) ;
#164 = COORDINATED_UNIVERSAL_TIME_OFFSET ( 1, 0, .AHEAD. ) ;
#165 = ORIENTED_EDGE ( 'NONE', *, *, #285, .T. ) ;
#166 = APPROVAL ( #94, 'NEURÈENÝ' ) ;
#167 = AXIS2_PLACEMENT_3D ( 'NONE', #147, #54, #236 ) ;
#168 = CALENDAR_DATE ( 2022, 20, 6 ) ;
#169 = VERTEX_POINT ( 'NONE', #129 ) ;
#170 = CARTESIAN_POINT ( 'NONE',  ( 2.000000000000000000, 2.449293598294706414E-16, 103.0000000000000142 ) ) ;
#171 = DIRECTION ( 'NONE',  ( -0.000000000000000000, -0.000000000000000000, -1.000000000000000000 ) ) ;
#172 = VERTEX_POINT ( 'NONE', #149 ) ;
#173 = FACE_OUTER_BOUND ( 'NONE', #195, .T. ) ;
#174 = DIRECTION ( 'NONE',  ( 0.000000000000000000, 0.000000000000000000, 1.000000000000000000 ) ) ;
#175 = DIRECTION ( 'NONE',  ( 1.000000000000000000, 0.000000000000000000, -0.000000000000000000 ) ) ;
#176 = AXIS2_PLACEMENT_3D ( 'NONE', #163, #231, #118 ) ;
#177 = CARTESIAN_POINT ( 'NONE',  ( 0.000000000000000000, 0.000000000000000000, 3.000000000000000000 ) ) ;
#178 = ADVANCED_FACE ( 'NONE', ( #238 ), #273, .T. ) ;
#179 = PLANE ( 'NONE',  #23 ) ;
#180 = CIRCLE ( 'NONE', #299, 2.000000000000000000 ) ;
#181 = COORDINATED_UNIVERSAL_TIME_OFFSET ( 1, 0, .AHEAD. ) ;
#182 = DIRECTION ( 'NONE',  ( 1.000000000000000000, 0.000000000000000000, 0.000000000000000000 ) ) ;
#183 = CIRCLE ( 'NONE', #46, 4.000000000000000000 ) ;
#184 = APPROVAL_PERSON_ORGANIZATION ( #186, #124, #65 ) ;
#185 = ADVANCED_FACE ( 'NONE', ( #132 ), #13, .T. ) ;
#186 = PERSON_AND_ORGANIZATION ( #158, #55 ) ;
#187 = AXIS2_PLACEMENT_3D ( 'NONE', #269, #203, #242 ) ;
#188 = PERSON_AND_ORGANIZATION ( #158, #55 ) ;
#189 = ORIENTED_EDGE ( 'NONE', *, *, #110, .T. ) ;
#190 = CIRCLE ( 'NONE', #107, 2.000000000000000000 ) ;
#191 = EDGE_CURVE ( 'NONE', #98, #284, #131, .T. ) ;
#192 = CARTESIAN_POINT ( 'NONE',  ( 0.000000000000000000, 0.000000000000000000, 0.000000000000000000 ) ) ;
#193 = CIRCLE ( 'NONE', #167, 2.000000000000000000 ) ;
#194 = AXIS2_PLACEMENT_3D ( 'NONE', #34, #109, #182 ) ;
#195 = EDGE_LOOP ( 'NONE', ( #103, #210, #307, #21 ) ) ;
#196 = CC_DESIGN_PERSON_AND_ORGANIZATION_ASSIGNMENT ( #188, #233, ( #17 ) ) ;
#197 = DIRECTION ( 'NONE',  ( 0.000000000000000000, 0.000000000000000000, 1.000000000000000000 ) ) ;
#198 = DIRECTION ( 'NONE',  ( -0.000000000000000000, -0.000000000000000000, -1.000000000000000000 ) ) ;
#199 = AXIS2_PLACEMENT_3D ( 'NONE', #148, #259, #74 ) ;
#200 = DIRECTION ( 'NONE',  ( -0.000000000000000000, -0.000000000000000000, -1.000000000000000000 ) ) ;
#201 = ADVANCED_FACE ( 'NONE', ( #219, #295 ), #179, .T. ) ;
#202 = CARTESIAN_POINT ( 'NONE',  ( -2.200000000000000178, 2.694222958124177006E-16, 3.199999999999994404 ) ) ;
#203 = DIRECTION ( 'NONE',  ( 0.000000000000000000, 0.000000000000000000, 1.000000000000000000 ) ) ;
#204 = CIRCLE ( 'NONE', #224, 4.000000000000000000 ) ;
#205 = ADVANCED_FACE ( 'NONE', ( #293 ), #58, .T. ) ;
#206 = DATE_AND_TIME ( #40, #208 ) ;
#207 = AXIS2_PLACEMENT_3D ( 'NONE', #159, #37, #246 ) ;
#208 = LOCAL_TIME ( 12, 10, 17.00000000000000000, #164 ) ;
#209 = APPROVAL_DATE_TIME ( #67, #124 ) ;
#210 = ORIENTED_EDGE ( 'NONE', *, *, #257, .T. ) ;
#211 = EDGE_CURVE ( 'NONE', #45, #249, #244, .T. ) ;
#212 = ORIENTED_EDGE ( 'NONE', *, *, #128, .T. ) ;
#213 = EDGE_LOOP ( 'NONE', ( #217, #140, #119, #26 ) ) ;
#214 = ORIENTED_EDGE ( 'NONE', *, *, #191, .T. ) ;
#215 = CARTESIAN_POINT ( 'NONE',  ( 0.000000000000000000, 0.000000000000000000, 103.0000000000000142 ) ) ;
#216 = AXIS2_PLACEMENT_3D ( 'NONE', #276, #47, #278 ) ;
#217 = ORIENTED_EDGE ( 'NONE', *, *, #257, .F. ) ;
#218 = DIRECTION ( 'NONE',  ( 0.000000000000000000, 0.000000000000000000, 1.000000000000000000 ) ) ;
#219 = FACE_BOUND ( 'NONE', #41, .T. ) ;
#220 = UNCERTAINTY_MEASURE_WITH_UNIT (LENGTH_MEASURE( 1.000000000000000082E-05 ), #113, 'distance_accuracy_value', 'NONE');
#221 = CARTESIAN_POINT ( 'NONE',  ( -2.200000000000000178, 2.694222958124177006E-16, 2.999999999999997335 ) ) ;
#222 = ADVANCED_FACE ( 'NONE', ( #82 ), #64, .F. ) ;
#223 = DIRECTION ( 'NONE',  ( 1.000000000000000000, 0.000000000000000000, 0.000000000000000000 ) ) ;
#224 = AXIS2_PLACEMENT_3D ( 'NONE', #10, #106, #134 ) ;
#225 = PERSON_AND_ORGANIZATION_ROLE ( 'design_owner' ) ;
#226 = ORIENTED_EDGE ( 'NONE', *, *, #73, .T. ) ;
#227 = ADVANCED_BREP_SHAPE_REPRESENTATION ( '8b08', ( #19, #216 ), #289 ) ;
#228 = MECHANICAL_CONTEXT ( 'NONE', #136, 'mechanical' ) ;
#229 = AXIS2_PLACEMENT_3D ( 'NONE', #50, #30, #4 ) ;
#230 = EDGE_LOOP ( 'NONE', ( #93, #226, #165, #121 ) ) ;
#231 = DIRECTION ( 'NONE',  ( 0.000000000000000000, 0.000000000000000000, 1.000000000000000000 ) ) ;
#232 = ADVANCED_FACE ( 'NONE', ( #240 ), #133, .T. ) ;
#233 = PERSON_AND_ORGANIZATION_ROLE ( 'creator' ) ;
#234 = CARTESIAN_POINT ( 'NONE',  ( -4.000000000000000000, 0.000000000000000000, 3.000000000000000000 ) ) ;
#235 = CARTESIAN_POINT ( 'NONE',  ( 0.000000000000000000, 0.000000000000000000, 3.199999999999994404 ) ) ;
#236 = DIRECTION ( 'NONE',  ( 1.000000000000000000, 0.000000000000000000, 0.000000000000000000 ) ) ;
#237 = ORIENTED_EDGE ( 'NONE', *, *, #281, .T. ) ;
#238 = FACE_OUTER_BOUND ( 'NONE', #146, .T. ) ;
#239 = EDGE_CURVE ( 'NONE', #284, #172, #77, .T. ) ;
#240 = FACE_OUTER_BOUND ( 'NONE', #230, .T. ) ;
#241 = CARTESIAN_POINT ( 'NONE',  ( 4.000000000000000000, 4.898587196589412829E-16, 0.000000000000000000 ) ) ;
#242 = DIRECTION ( 'NONE',  ( 1.000000000000000000, 0.000000000000000000, -0.000000000000000000 ) ) ;
#243 = SECURITY_CLASSIFICATION ( '', '', #44 ) ;
#244 = LINE ( 'NONE', #57, #35 ) ;
#245 = CC_DESIGN_PERSON_AND_ORGANIZATION_ASSIGNMENT ( #139, #69, ( #243 ) ) ;
#246 = DIRECTION ( 'NONE',  ( -1.000000000000000000, 0.000000000000000000, 0.000000000000000000 ) ) ;
#247 = VECTOR ( 'NONE', #171, 1000.000000000000000 ) ;
#248 =( NAMED_UNIT ( * ) SI_UNIT ( $, .STERADIAN. ) SOLID_ANGLE_UNIT ( ) );
#249 = VERTEX_POINT ( 'NONE', #14 ) ;
#250 = COORDINATED_UNIVERSAL_TIME_OFFSET ( 1, 0, .AHEAD. ) ;
#251 = CALENDAR_DATE ( 2022, 20, 6 ) ;
#252 = CALENDAR_DATE ( 2022, 20, 6 ) ;
#253 = PERSON_AND_ORGANIZATION ( #158, #55 ) ;
#254 = ORIENTED_EDGE ( 'NONE', *, *, #79, .T. ) ;
#255 = APPROVAL_STATUS ( 'not_yet_approved' ) ;
#256 = ORIENTED_EDGE ( 'NONE', *, *, #3, .F. ) ;
#257 = EDGE_CURVE ( 'NONE', #284, #283, #60, .T. ) ;
#258 = CARTESIAN_POINT ( 'NONE',  ( 4.000000000000000000, 4.898587196589412829E-16, 3.000000000000000000 ) ) ;
#259 = DIRECTION ( 'NONE',  ( 0.000000000000000000, -1.000000000000000000, 0.000000000000000000 ) ) ;
#260 = CC_DESIGN_PERSON_AND_ORGANIZATION_ASSIGNMENT ( #253, #279, ( #17 ) ) ;
#261 = CARTESIAN_POINT ( 'NONE',  ( 4.000000000000000000, 4.898587196589412829E-16, 3.000000000000000000 ) ) ;
#262 = DIRECTION ( 'NONE',  ( -0.000000000000000000, -0.000000000000000000, -1.000000000000000000 ) ) ;
#263 = PRODUCT ( '8b08', '8b08', '', ( #228 ) ) ;
#264 = DIRECTION ( 'NONE',  ( -0.000000000000000000, -0.000000000000000000, -1.000000000000000000 ) ) ;
#265 = EDGE_CURVE ( 'NONE', #22, #45, #183, .T. ) ;
#266 = CARTESIAN_POINT ( 'NONE',  ( 0.000000000000000000, 0.000000000000000000, 3.000000000000000000 ) ) ;
#267 = APPROVAL_PERSON_ORGANIZATION ( #42, #166, #130 ) ;
#268 = DIRECTION ( 'NONE',  ( -1.000000000000000000, 0.000000000000000000, 0.000000000000000000 ) ) ;
#269 = CARTESIAN_POINT ( 'NONE',  ( 0.000000000000000000, 0.000000000000000000, 103.0000000000000142 ) ) ;
#270 = APPLICATION_CONTEXT ( 'configuration controlled 3d designs of mechanical parts and assemblies' ) ;
#271 = AXIS2_PLACEMENT_3D ( 'NONE', #192, #174, #291 ) ;
#272 = DESIGN_CONTEXT ( 'detailed design', #270, 'design' ) ;
#273 = CYLINDRICAL_SURFACE ( 'NONE', #84, 4.000000000000000000 ) ;
#274 = CC_DESIGN_APPROVAL ( #15, ( #17 ) ) ;
#275 = DIRECTION ( 'NONE',  ( -0.000000000000000000, -0.000000000000000000, -1.000000000000000000 ) ) ;
#276 = CARTESIAN_POINT ( 'NONE',  ( 0.000000000000000000, 0.000000000000000000, 0.000000000000000000 ) ) ;
#277 =( NAMED_UNIT ( * ) PLANE_ANGLE_UNIT ( ) SI_UNIT ( $, .RADIAN. ) );
#278 = DIRECTION ( 'NONE',  ( 1.000000000000000000, 0.000000000000000000, 0.000000000000000000 ) ) ;
#279 = PERSON_AND_ORGANIZATION_ROLE ( 'design_supplier' ) ;
#280 = ORIENTED_EDGE ( 'NONE', *, *, #265, .F. ) ;
#281 = EDGE_CURVE ( 'NONE', #249, #304, #204, .T. ) ;
#282 = LOCAL_TIME ( 12, 10, 17.00000000000000000, #250 ) ;
#283 = VERTEX_POINT ( 'NONE', #221 ) ;
#284 = VERTEX_POINT ( 'NONE', #297 ) ;
#285 = EDGE_CURVE ( 'NONE', #172, #284, #190, .T. ) ;
#286 = TOROIDAL_SURFACE ( 'NONE', #152, 2.200000000000000178, 0.2000000000000000111 ) ;
#287 = DIRECTION ( 'NONE',  ( 1.000000000000000000, 0.000000000000000000, 0.000000000000000000 ) ) ;
#288 = VECTOR ( 'NONE', #275, 1000.000000000000000 ) ;
#289 =( GEOMETRIC_REPRESENTATION_CONTEXT ( 3 ) GLOBAL_UNCERTAINTY_ASSIGNED_CONTEXT ( ( #220 ) ) GLOBAL_UNIT_ASSIGNED_CONTEXT ( ( #113, #277, #248 ) ) REPRESENTATION_CONTEXT ( 'NONE', 'WORKASPACE' ) );
#290 = VERTEX_POINT ( 'NONE', #135 ) ;
#291 = DIRECTION ( 'NONE',  ( 1.000000000000000000, 0.000000000000000000, 0.000000000000000000 ) ) ;
#292 = EDGE_CURVE ( 'NONE', #283, #290, #61, .T. ) ;
#293 = FACE_OUTER_BOUND ( 'NONE', #301, .T. ) ;
#294 = CARTESIAN_POINT ( 'NONE',  ( 0.000000000000000000, 0.000000000000000000, 3.199999999999994404 ) ) ;
#295 = FACE_OUTER_BOUND ( 'NONE', #138, .T. ) ;
#296 = DIRECTION ( 'NONE',  ( 0.000000000000000000, 0.000000000000000000, 1.000000000000000000 ) ) ;
#297 = CARTESIAN_POINT ( 'NONE',  ( -2.000000000000000000, 0.000000000000000000, 3.199999999999994404 ) ) ;
#298 = APPLICATION_PROTOCOL_DEFINITION ( 'international standard', 'config_control_design', 1994, #136 ) ;
#299 = AXIS2_PLACEMENT_3D ( 'NONE', #126, #197, #80 ) ;
#300 = SHAPE_DEFINITION_REPRESENTATION ( #63, #227 ) ;
#301 = EDGE_LOOP ( 'NONE', ( #256, #7, #76, #237 ) ) ;
#302 = AXIS2_PLACEMENT_3D ( 'NONE', #62, #85, #175 ) ;
#303 = DATE_AND_TIME ( #251, #127 ) ;
#304 = VERTEX_POINT ( 'NONE', #241 ) ;
#305 = ADVANCED_FACE ( 'NONE', ( #16 ), #96, .F. ) ;
#306 = PERSON_AND_ORGANIZATION_ROLE ( 'creator' ) ;
#307 = ORIENTED_EDGE ( 'NONE', *, *, #128, .F. ) ;
ENDSEC;
END-ISO-10303-21;
