ISO-10303-21;
HEADER;
FILE_DESCRIPTION (( 'STEP AP203' ),
    '1' );
FILE_NAME ('2521.STEP',
    '2022-06-20T09:54:27',
    ( '' ),
    ( '' ),
    'SwSTEP 2.0',
    'SolidWorks 2019',
    '' );
FILE_SCHEMA (( 'CONFIG_CONTROL_DESIGN' ));
ENDSEC;

DATA;
#1 = FACE_OUTER_BOUND ( 'NONE', #93, .T. ) ;
#2 = CC_DESIGN_PERSON_AND_ORGANIZATION_ASSIGNMENT ( #197, #35, ( #235 ) ) ;
#3 = DIRECTION ( 'NONE',  ( 0.000000000000000000, 0.000000000000000000, 1.000000000000000000 ) ) ;
#4 = PERSON_AND_ORGANIZATION ( #64, #97 ) ;
#5 = DIRECTION ( 'NONE',  ( 1.000000000000000000, 0.000000000000000000, 0.000000000000000000 ) ) ;
#6 = CC_DESIGN_PERSON_AND_ORGANIZATION_ASSIGNMENT ( #61, #130, ( #112 ) ) ;
#7 = DIRECTION ( 'NONE',  ( 0.000000000000000000, 0.000000000000000000, 1.000000000000000000 ) ) ;
#8 = DIRECTION ( 'NONE',  ( -0.000000000000000000, -0.000000000000000000, -1.000000000000000000 ) ) ;
#9 = DIRECTION ( 'NONE',  ( 1.224646799147353207E-16, 1.000000000000000000, -0.000000000000000000 ) ) ;
#10 = LOCAL_TIME ( 11, 54, 27.00000000000000000, #152 ) ;
#11 = FACE_OUTER_BOUND ( 'NONE', #305, .T. ) ;
#12 = DIRECTION ( 'NONE',  ( 0.000000000000000000, 0.000000000000000000, 1.000000000000000000 ) ) ;
#13 = DIRECTION ( 'NONE',  ( 1.000000000000000000, 0.000000000000000000, 0.000000000000000000 ) ) ;
#14 = APPROVAL_STATUS ( 'not_yet_approved' ) ;
#15 = CARTESIAN_POINT ( 'NONE',  ( 3.250000000000000444, 3.980102097228898231E-16, 255.0000000000000000 ) ) ;
#16 = PRODUCT_DEFINITION ( 'NEZNÁMÝ', '', #296, #293 ) ;
#17 = APPROVAL_DATE_TIME ( #257, #45 ) ;
#18 = ORIENTED_EDGE ( 'NONE', *, *, #247, .F. ) ;
#19 = EDGE_LOOP ( 'NONE', ( #294, #20, #214, #49 ) ) ;
#20 = ORIENTED_EDGE ( 'NONE', *, *, #154, .F. ) ;
#21 = CIRCLE ( 'NONE', #266, 6.000000000000000888 ) ;
#22 = DIRECTION ( 'NONE',  ( -0.000000000000000000, -0.000000000000000000, -1.000000000000000000 ) ) ;
#23 = CC_DESIGN_APPROVAL ( #45, ( #235 ) ) ;
#24 = ORIENTED_EDGE ( 'NONE', *, *, #29, .T. ) ;
#25 = DATE_AND_TIME ( #291, #306 ) ;
#26 = CARTESIAN_POINT ( 'NONE',  ( -3.450000000000000178, 4.225031457058368824E-16, 5.000000000000005329 ) ) ;
#27 = AXIS2_PLACEMENT_3D ( 'NONE', #147, #270, #234 ) ;
#28 = FACE_OUTER_BOUND ( 'NONE', #140, .T. ) ;
#29 = EDGE_CURVE ( 'NONE', #111, #286, #261, .T. ) ;
#30 = AXIS2_PLACEMENT_3D ( 'NONE', #108, #203, #158 ) ;
#31 = COORDINATED_UNIVERSAL_TIME_OFFSET ( 1, 0, .AHEAD. ) ;
#32 = CARTESIAN_POINT ( 'NONE',  ( 6.000000000000000888, 7.347880794884120722E-16, 5.000000000000000000 ) ) ;
#33 = PERSON_AND_ORGANIZATION_ROLE ( 'design_supplier' ) ;
#34 = CARTESIAN_POINT ( 'NONE',  ( -3.450000000000000178, 4.225031457058368824E-16, 5.200000000000009948 ) ) ;
#35 = PERSON_AND_ORGANIZATION_ROLE ( 'classification_officer' ) ;
#36 = AXIS2_PLACEMENT_3D ( 'NONE', #165, #220, #53 ) ;
#37 = FACE_OUTER_BOUND ( 'NONE', #19, .T. ) ;
#38 = DIRECTION ( 'NONE',  ( 1.000000000000000000, 0.000000000000000000, 0.000000000000000000 ) ) ;
#39 = AXIS2_PLACEMENT_3D ( 'NONE', #162, #22, #145 ) ;
#40 = EDGE_CURVE ( 'NONE', #259, #255, #178, .T. ) ;
#41 = AXIS2_PLACEMENT_3D ( 'NONE', #239, #124, #269 ) ;
#42 = EDGE_LOOP ( 'NONE', ( #262, #92 ) ) ;
#43 = PERSON_AND_ORGANIZATION ( #64, #97 ) ;
#44 = LINE ( 'NONE', #58, #69 ) ;
#45 = APPROVAL ( #14, 'NEURÈENÝ' ) ;
#46 = EDGE_LOOP ( 'NONE', ( #114, #47, #180, #141 ) ) ;
#47 = ORIENTED_EDGE ( 'NONE', *, *, #304, .T. ) ;
#48 = APPROVAL_PERSON_ORGANIZATION ( #297, #301, #85 ) ;
#49 = ORIENTED_EDGE ( 'NONE', *, *, #113, .F. ) ;
#50 = DIRECTION ( 'NONE',  ( 0.000000000000000000, 0.000000000000000000, 1.000000000000000000 ) ) ;
#51 = ADVANCED_FACE ( 'NONE', ( #142 ), #191, .T. ) ;
#52 = DIRECTION ( 'NONE',  ( 1.000000000000000000, 0.000000000000000000, 0.000000000000000000 ) ) ;
#53 = DIRECTION ( 'NONE',  ( 1.000000000000000000, 0.000000000000000000, -0.000000000000000000 ) ) ;
#54 = APPLICATION_PROTOCOL_DEFINITION ( 'international standard', 'config_control_design', 1994, #57 ) ;
#55 = LINE ( 'NONE', #32, #241 ) ;
#56 = EDGE_CURVE ( 'NONE', #115, #302, #21, .T. ) ;
#57 = APPLICATION_CONTEXT ( 'configuration controlled 3d designs of mechanical parts and assemblies' ) ;
#58 = CARTESIAN_POINT ( 'NONE',  ( -3.250000000000000444, 0.000000000000000000, 255.0000000000000000 ) ) ;
#59 = DIRECTION ( 'NONE',  ( 0.000000000000000000, 0.000000000000000000, -1.000000000000000000 ) ) ;
#60 = AXIS2_PLACEMENT_3D ( 'NONE', #134, #12, #173 ) ;
#61 = PERSON_AND_ORGANIZATION ( #64, #97 ) ;
#62 = DIRECTION ( 'NONE',  ( -0.000000000000000000, -0.000000000000000000, -1.000000000000000000 ) ) ;
#63 = CARTESIAN_POINT ( 'NONE',  ( -6.000000000000000888, 0.000000000000000000, 5.000000000000000000 ) ) ;
#64 = PERSON ( 'NEURÈENÝ', 'NEURÈENÝ', 'NEURÈENÝ', ('NEURÈENÝ'), ('NEURÈENÝ'), ('NEURÈENÝ') ) ;
#65 = ADVANCED_FACE ( 'NONE', ( #1 ), #128, .T. ) ;
#66 = PRODUCT_DEFINITION_SHAPE ( 'NONE', 'NONE',  #16 ) ;
#67 = DIRECTION ( 'NONE',  ( -0.000000000000000000, -0.000000000000000000, -1.000000000000000000 ) ) ;
#68 = COORDINATED_UNIVERSAL_TIME_OFFSET ( 1, 0, .AHEAD. ) ;
#69 = VECTOR ( 'NONE', #170, 1000.000000000000000 ) ;
#70 = ORIENTED_EDGE ( 'NONE', *, *, #224, .T. ) ;
#71 = ORIENTED_EDGE ( 'NONE', *, *, #224, .F. ) ;
#72 = VERTEX_POINT ( 'NONE', #26 ) ;
#73 = CIRCLE ( 'NONE', #95, 6.000000000000000888 ) ;
#74 = ORIENTED_EDGE ( 'NONE', *, *, #77, .F. ) ;
#75 = AXIS2_PLACEMENT_3D ( 'NONE', #268, #7, #216 ) ;
#76 = ORIENTED_EDGE ( 'NONE', *, *, #298, .F. ) ;
#77 = EDGE_CURVE ( 'NONE', #302, #115, #73, .T. ) ;
#78 = APPLICATION_PROTOCOL_DEFINITION ( 'international standard', 'config_control_design', 1994, #189 ) ;
#79 = CARTESIAN_POINT ( 'NONE',  ( 0.000000000000000000, 0.000000000000000000, 0.000000000000000000 ) ) ;
#80 = DIRECTION ( 'NONE',  ( 1.000000000000000000, 0.000000000000000000, 0.000000000000000000 ) ) ;
#81 = CARTESIAN_POINT ( 'NONE',  ( 0.000000000000000000, 0.000000000000000000, 5.000000000000000000 ) ) ;
#82 = DIRECTION ( 'NONE',  ( 1.000000000000000000, 0.000000000000000000, 0.000000000000000000 ) ) ;
#83 = DATE_TIME_ROLE ( 'creation_date' ) ;
#84 = APPROVAL_PERSON_ORGANIZATION ( #43, #45, #226 ) ;
#85 = APPROVAL_ROLE ( '' ) ;
#86 = PERSON_AND_ORGANIZATION ( #64, #97 ) ;
#87 = FACE_OUTER_BOUND ( 'NONE', #182, .T. ) ;
#88 = ADVANCED_FACE ( 'NONE', ( #240 ), #102, .T. ) ;
#89 = VECTOR ( 'NONE', #8, 1000.000000000000000 ) ;
#90 = DIRECTION ( 'NONE',  ( 0.000000000000000000, 0.000000000000000000, 1.000000000000000000 ) ) ;
#91 = VERTEX_POINT ( 'NONE', #236 ) ;
#92 = ORIENTED_EDGE ( 'NONE', *, *, #113, .T. ) ;
#93 = EDGE_LOOP ( 'NONE', ( #232, #303, #160, #76 ) ) ;
#94 = VERTEX_POINT ( 'NONE', #289 ) ;
#95 = AXIS2_PLACEMENT_3D ( 'NONE', #99, #123, #52 ) ;
#96 = ORIENTED_EDGE ( 'NONE', *, *, #164, .T. ) ;
#97 = ORGANIZATION ( 'NEURÈENÝ', 'NEURÈENÝ', '' ) ;
#98 = CARTESIAN_POINT ( 'NONE',  ( 0.000000000000000000, 0.000000000000000000, 255.0000000000000000 ) ) ;
#99 = CARTESIAN_POINT ( 'NONE',  ( 0.000000000000000000, 0.000000000000000000, 0.000000000000000000 ) ) ;
#100 = CARTESIAN_POINT ( 'NONE',  ( 0.000000000000000000, 0.000000000000000000, 5.000000000000000000 ) ) ;
#101 = CIRCLE ( 'NONE', #148, 3.450000000000000178 ) ;
#102 = CYLINDRICAL_SURFACE ( 'NONE', #207, 3.250000000000000444 ) ;
#103 = CALENDAR_DATE ( 2022, 20, 6 ) ;
#104 = DIRECTION ( 'NONE',  ( -0.000000000000000000, -0.000000000000000000, -1.000000000000000000 ) ) ;
#105 = SECURITY_CLASSIFICATION_LEVEL ( 'unclassified' ) ;
#106 = EDGE_CURVE ( 'NONE', #111, #115, #55, .T. ) ;
#107 = APPROVAL_STATUS ( 'not_yet_approved' ) ;
#108 = CARTESIAN_POINT ( 'NONE',  ( 0.000000000000000000, 0.000000000000000000, 5.000000000000000000 ) ) ;
#109 = AXIS2_PLACEMENT_3D ( 'NONE', #100, #50, #5 ) ;
#110 = SHAPE_DEFINITION_REPRESENTATION ( #66, #177 ) ;
#111 = VERTEX_POINT ( 'NONE', #307 ) ;
#112 = PRODUCT ( '2521', '2521', '', ( #122 ) ) ;
#113 = EDGE_CURVE ( 'NONE', #72, #229, #285, .T. ) ;
#114 = ORIENTED_EDGE ( 'NONE', *, *, #164, .F. ) ;
#115 = VERTEX_POINT ( 'NONE', #121 ) ;
#116 = ADVANCED_FACE ( 'NONE', ( #166, #28 ), #125, .T. ) ;
#117 = CC_DESIGN_DATE_AND_TIME_ASSIGNMENT ( #25, #83, ( #16 ) ) ;
#118 = ORIENTED_EDGE ( 'NONE', *, *, #154, .T. ) ;
#119 = DIRECTION ( 'NONE',  ( -0.000000000000000000, -0.000000000000000000, -1.000000000000000000 ) ) ;
#120 = LOCAL_TIME ( 11, 54, 27.00000000000000000, #68 ) ;
#121 = CARTESIAN_POINT ( 'NONE',  ( 6.000000000000000888, 7.347880794884120722E-16, 0.000000000000000000 ) ) ;
#122 = MECHANICAL_CONTEXT ( 'NONE', #189, 'mechanical' ) ;
#123 = DIRECTION ( 'NONE',  ( 0.000000000000000000, 0.000000000000000000, 1.000000000000000000 ) ) ;
#124 = DIRECTION ( 'NONE',  ( 0.000000000000000000, 0.000000000000000000, 1.000000000000000000 ) ) ;
#125 = PLANE ( 'NONE',  #36 ) ;
#126 = CIRCLE ( 'NONE', #211, 3.250000000000000444 ) ;
#127 = COORDINATED_UNIVERSAL_TIME_OFFSET ( 1, 0, .AHEAD. ) ;
#128 = CYLINDRICAL_SURFACE ( 'NONE', #39, 6.000000000000000888 ) ;
#129 = EDGE_CURVE ( 'NONE', #255, #259, #254, .T. ) ;
#130 = PERSON_AND_ORGANIZATION_ROLE ( 'design_owner' ) ;
#131 = CARTESIAN_POINT ( 'NONE',  ( -3.250000000000000444, 0.000000000000000000, 255.0000000000000000 ) ) ;
#132 = CLOSED_SHELL ( 'NONE', ( #176, #221, #65, #283, #116, #264, #88, #51, #233 ) ) ;
#133 = COORDINATED_UNIVERSAL_TIME_OFFSET ( 1, 0, .AHEAD. ) ;
#134 = CARTESIAN_POINT ( 'NONE',  ( 0.000000000000000000, 0.000000000000000000, 0.000000000000000000 ) ) ;
#135 = AXIS2_PLACEMENT_3D ( 'NONE', #136, #276, #38 ) ;
#136 = CARTESIAN_POINT ( 'NONE',  ( 0.000000000000000000, 0.000000000000000000, 5.200000000000009948 ) ) ;
#137 = LINE ( 'NONE', #15, #89 ) ;
#138 = CC_DESIGN_APPROVAL ( #301, ( #16 ) ) ;
#139 = ORIENTED_EDGE ( 'NONE', *, *, #40, .T. ) ;
#140 = EDGE_LOOP ( 'NONE', ( #70, #24 ) ) ;
#141 = ORIENTED_EDGE ( 'NONE', *, *, #169, .F. ) ;
#142 = FACE_OUTER_BOUND ( 'NONE', #208, .T. ) ;
#143 = CARTESIAN_POINT ( 'NONE',  ( 0.000000000000000000, 0.000000000000000000, 255.0000000000000000 ) ) ;
#144 = CC_DESIGN_SECURITY_CLASSIFICATION ( #235, ( #296 ) ) ;
#145 = DIRECTION ( 'NONE',  ( -1.000000000000000000, 0.000000000000000000, 0.000000000000000000 ) ) ;
#146 = DIRECTION ( 'NONE',  ( 1.000000000000000000, 0.000000000000000000, -0.000000000000000000 ) ) ;
#147 = CARTESIAN_POINT ( 'NONE',  ( 0.000000000000000000, 0.000000000000000000, 255.0000000000000000 ) ) ;
#148 = AXIS2_PLACEMENT_3D ( 'NONE', #200, #62, #175 ) ;
#149 = CARTESIAN_POINT ( 'NONE',  ( -6.000000000000000888, 0.000000000000000000, 0.000000000000000000 ) ) ;
#150 = DATE_AND_TIME ( #248, #273 ) ;
#151 = CARTESIAN_POINT ( 'NONE',  ( 0.000000000000000000, 0.000000000000000000, 5.000000000000000000 ) ) ;
#152 = COORDINATED_UNIVERSAL_TIME_OFFSET ( 1, 0, .AHEAD. ) ;
#153 = PLANE ( 'NONE',  #60 ) ;
#154 = EDGE_CURVE ( 'NONE', #91, #94, #300, .T. ) ;
#155 = TOROIDAL_SURFACE ( 'NONE', #287, 3.450000000000000178, 0.2000000000000000111 ) ;
#156 =( NAMED_UNIT ( * ) PLANE_ANGLE_UNIT ( ) SI_UNIT ( $, .RADIAN. ) );
#157 = CC_DESIGN_APPROVAL ( #181, ( #296 ) ) ;
#158 = DIRECTION ( 'NONE',  ( -1.000000000000000000, 0.000000000000000000, 0.000000000000000000 ) ) ;
#159 = ORIENTED_EDGE ( 'NONE', *, *, #106, .F. ) ;
#160 = ORIENTED_EDGE ( 'NONE', *, *, #56, .T. ) ;
#161 = UNCERTAINTY_MEASURE_WITH_UNIT (LENGTH_MEASURE( 1.000000000000000082E-05 ), #278, 'distance_accuracy_value', 'NONE');
#162 = CARTESIAN_POINT ( 'NONE',  ( 0.000000000000000000, 0.000000000000000000, 5.000000000000000000 ) ) ;
#163 = DIRECTION ( 'NONE',  ( 1.000000000000000000, 0.000000000000000000, 0.000000000000000000 ) ) ;
#164 = EDGE_CURVE ( 'NONE', #94, #91, #126, .T. ) ;
#165 = CARTESIAN_POINT ( 'NONE',  ( 0.000000000000000000, 0.000000000000000000, 5.000000000000000000 ) ) ;
#166 = FACE_BOUND ( 'NONE', #42, .T. ) ;
#167 = CC_DESIGN_DATE_AND_TIME_ASSIGNMENT ( #228, #201, ( #235 ) ) ;
#168 = ORIENTED_EDGE ( 'NONE', *, *, #295, .T. ) ;
#169 = EDGE_CURVE ( 'NONE', #91, #229, #222, .T. ) ;
#170 = DIRECTION ( 'NONE',  ( -0.000000000000000000, -0.000000000000000000, -1.000000000000000000 ) ) ;
#171 = LOCAL_TIME ( 11, 54, 27.00000000000000000, #133 ) ;
#172 = CYLINDRICAL_SURFACE ( 'NONE', #290, 3.250000000000000444 ) ;
#173 = DIRECTION ( 'NONE',  ( 1.000000000000000000, 0.000000000000000000, -0.000000000000000000 ) ) ;
#174 = LINE ( 'NONE', #63, #256 ) ;
#175 = DIRECTION ( 'NONE',  ( 1.000000000000000000, 0.000000000000000000, 0.000000000000000000 ) ) ;
#176 = ADVANCED_FACE ( 'NONE', ( #195 ), #155, .F. ) ;
#177 = ADVANCED_BREP_SHAPE_REPRESENTATION ( '2521', ( #213, #41 ), #227 ) ;
#178 = CIRCLE ( 'NONE', #27, 3.250000000000000444 ) ;
#179 = ORIENTED_EDGE ( 'NONE', *, *, #77, .T. ) ;
#180 = ORIENTED_EDGE ( 'NONE', *, *, #205, .F. ) ;
#181 = APPROVAL ( #107, 'NEURÈENÝ' ) ;
#182 = EDGE_LOOP ( 'NONE', ( #74, #243 ) ) ;
#183 = ORIENTED_EDGE ( 'NONE', *, *, #129, .F. ) ;
#184 = CIRCLE ( 'NONE', #198, 6.000000000000000888 ) ;
#185 = ORIENTED_EDGE ( 'NONE', *, *, #295, .F. ) ;
#186 = DIRECTION ( 'NONE',  ( 0.000000000000000000, 0.000000000000000000, 1.000000000000000000 ) ) ;
#187 = CC_DESIGN_PERSON_AND_ORGANIZATION_ASSIGNMENT ( #4, #192, ( #296 ) ) ;
#188 = DIRECTION ( 'NONE',  ( -0.000000000000000000, -0.000000000000000000, -1.000000000000000000 ) ) ;
#189 = APPLICATION_CONTEXT ( 'configuration controlled 3d designs of mechanical parts and assemblies' ) ;
#190 = APPROVAL_DATE_TIME ( #215, #181 ) ;
#191 = PLANE ( 'NONE',  #202 ) ;
#192 = PERSON_AND_ORGANIZATION_ROLE ( 'creator' ) ;
#193 = DIRECTION ( 'NONE',  ( -1.000000000000000000, 0.000000000000000000, 0.000000000000000000 ) ) ;
#194 = PERSON_AND_ORGANIZATION ( #64, #97 ) ;
#195 = FACE_OUTER_BOUND ( 'NONE', #46, .T. ) ;
#196 = AXIS2_PLACEMENT_3D ( 'NONE', #98, #186, #237 ) ;
#197 = PERSON_AND_ORGANIZATION ( #64, #97 ) ;
#198 = AXIS2_PLACEMENT_3D ( 'NONE', #151, #246, #249 ) ;
#199 = CALENDAR_DATE ( 2022, 20, 6 ) ;
#200 = CARTESIAN_POINT ( 'NONE',  ( 0.000000000000000000, 0.000000000000000000, 5.000000000000000000 ) ) ;
#201 = DATE_TIME_ROLE ( 'classification_date' ) ;
#202 = AXIS2_PLACEMENT_3D ( 'NONE', #292, #212, #146 ) ;
#203 = DIRECTION ( 'NONE',  ( -0.000000000000000000, -0.000000000000000000, -1.000000000000000000 ) ) ;
#204 = TOROIDAL_SURFACE ( 'NONE', #135, 3.450000000000000178, 0.2000000000000000111 ) ;
#205 = EDGE_CURVE ( 'NONE', #229, #72, #101, .T. ) ;
#206 = CARTESIAN_POINT ( 'NONE',  ( 3.250000000000000444, 3.980102097228898231E-16, 255.0000000000000000 ) ) ;
#207 = AXIS2_PLACEMENT_3D ( 'NONE', #143, #188, #193 ) ;
#208 = EDGE_LOOP ( 'NONE', ( #139, #282 ) ) ;
#209 = CIRCLE ( 'NONE', #280, 0.2000000000000000944 ) ;
#210 = ORIENTED_EDGE ( 'NONE', *, *, #298, .T. ) ;
#211 = AXIS2_PLACEMENT_3D ( 'NONE', #218, #3, #82 ) ;
#212 = DIRECTION ( 'NONE',  ( 0.000000000000000000, 0.000000000000000000, 1.000000000000000000 ) ) ;
#213 = MANIFOLD_SOLID_BREP ( 'Zaoblit1', #132 ) ;
#214 = ORIENTED_EDGE ( 'NONE', *, *, #169, .T. ) ;
#215 = DATE_AND_TIME ( #103, #10 ) ;
#216 = DIRECTION ( 'NONE',  ( 1.000000000000000000, 0.000000000000000000, 0.000000000000000000 ) ) ;
#217 = APPROVAL_DATE_TIME ( #150, #301 ) ;
#218 = CARTESIAN_POINT ( 'NONE',  ( 0.000000000000000000, 0.000000000000000000, 5.200000000000009948 ) ) ;
#219 = APPROVAL_ROLE ( '' ) ;
#220 = DIRECTION ( 'NONE',  ( 0.000000000000000000, 0.000000000000000000, 1.000000000000000000 ) ) ;
#221 = ADVANCED_FACE ( 'NONE', ( #11 ), #172, .T. ) ;
#222 = CIRCLE ( 'NONE', #244, 0.1999999999999996503 ) ;
#223 = CYLINDRICAL_SURFACE ( 'NONE', #30, 6.000000000000000888 ) ;
#224 = EDGE_CURVE ( 'NONE', #286, #111, #184, .T. ) ;
#225 =( NAMED_UNIT ( * ) SI_UNIT ( $, .STERADIAN. ) SOLID_ANGLE_UNIT ( ) );
#226 = APPROVAL_ROLE ( '' ) ;
#227 =( GEOMETRIC_REPRESENTATION_CONTEXT ( 3 ) GLOBAL_UNCERTAINTY_ASSIGNED_CONTEXT ( ( #161 ) ) GLOBAL_UNIT_ASSIGNED_CONTEXT ( ( #278, #156, #225 ) ) REPRESENTATION_CONTEXT ( 'NONE', 'WORKASPACE' ) );
#228 = DATE_AND_TIME ( #199, #171 ) ;
#229 = VERTEX_POINT ( 'NONE', #281 ) ;
#230 = CALENDAR_DATE ( 2022, 20, 6 ) ;
#231 = EDGE_LOOP ( 'NONE', ( #18, #260, #168, #96 ) ) ;
#232 = ORIENTED_EDGE ( 'NONE', *, *, #29, .F. ) ;
#233 = ADVANCED_FACE ( 'NONE', ( #37 ), #204, .F. ) ;
#234 = DIRECTION ( 'NONE',  ( 1.000000000000000000, 0.000000000000000000, 0.000000000000000000 ) ) ;
#235 = SECURITY_CLASSIFICATION ( '', '', #105 ) ;
#236 = CARTESIAN_POINT ( 'NONE',  ( 3.250000000000000444, 3.980102097228898231E-16, 5.200000000000009948 ) ) ;
#237 = DIRECTION ( 'NONE',  ( 1.000000000000000000, 0.000000000000000000, 0.000000000000000000 ) ) ;
#238 = CC_DESIGN_PERSON_AND_ORGANIZATION_ASSIGNMENT ( #86, #274, ( #16 ) ) ;
#239 = CARTESIAN_POINT ( 'NONE',  ( 0.000000000000000000, 0.000000000000000000, 0.000000000000000000 ) ) ;
#240 = FACE_OUTER_BOUND ( 'NONE', #231, .T. ) ;
#241 = VECTOR ( 'NONE', #119, 1000.000000000000000 ) ;
#242 = APPROVAL_STATUS ( 'not_yet_approved' ) ;
#243 = ORIENTED_EDGE ( 'NONE', *, *, #56, .F. ) ;
#244 = AXIS2_PLACEMENT_3D ( 'NONE', #271, #288, #59 ) ;
#245 = PERSON_AND_ORGANIZATION ( #64, #97 ) ;
#246 = DIRECTION ( 'NONE',  ( 0.000000000000000000, 0.000000000000000000, 1.000000000000000000 ) ) ;
#247 = EDGE_CURVE ( 'NONE', #255, #91, #137, .T. ) ;
#248 = CALENDAR_DATE ( 2022, 20, 6 ) ;
#249 = DIRECTION ( 'NONE',  ( 1.000000000000000000, 0.000000000000000000, 0.000000000000000000 ) ) ;
#250 = DIRECTION ( 'NONE',  ( -0.000000000000000000, -0.000000000000000000, -1.000000000000000000 ) ) ;
#251 = CARTESIAN_POINT ( 'NONE',  ( 0.000000000000000000, 0.000000000000000000, 5.200000000000009948 ) ) ;
#252 = PRODUCT_RELATED_PRODUCT_CATEGORY ( 'detail', '', ( #112 ) ) ;
#253 = CARTESIAN_POINT ( 'NONE',  ( 0.000000000000000000, 0.000000000000000000, 255.0000000000000000 ) ) ;
#254 = CIRCLE ( 'NONE', #196, 3.250000000000000444 ) ;
#255 = VERTEX_POINT ( 'NONE', #206 ) ;
#256 = VECTOR ( 'NONE', #250, 1000.000000000000000 ) ;
#257 = DATE_AND_TIME ( #230, #120 ) ;
#258 = CARTESIAN_POINT ( 'NONE',  ( -6.000000000000000888, 0.000000000000000000, 5.000000000000000000 ) ) ;
#259 = VERTEX_POINT ( 'NONE', #131 ) ;
#260 = ORIENTED_EDGE ( 'NONE', *, *, #40, .F. ) ;
#261 = CIRCLE ( 'NONE', #109, 6.000000000000000888 ) ;
#262 = ORIENTED_EDGE ( 'NONE', *, *, #205, .T. ) ;
#263 = APPROVAL_PERSON_ORGANIZATION ( #245, #181, #219 ) ;
#264 = ADVANCED_FACE ( 'NONE', ( #87 ), #153, .F. ) ;
#265 = DIRECTION ( 'NONE',  ( 0.000000000000000000, 0.000000000000000000, 1.000000000000000000 ) ) ;
#266 = AXIS2_PLACEMENT_3D ( 'NONE', #79, #265, #163 ) ;
#267 = ORIENTED_EDGE ( 'NONE', *, *, #247, .T. ) ;
#268 = CARTESIAN_POINT ( 'NONE',  ( 0.000000000000000000, 0.000000000000000000, 5.200000000000009948 ) ) ;
#269 = DIRECTION ( 'NONE',  ( 1.000000000000000000, 0.000000000000000000, 0.000000000000000000 ) ) ;
#270 = DIRECTION ( 'NONE',  ( 0.000000000000000000, 0.000000000000000000, 1.000000000000000000 ) ) ;
#271 = CARTESIAN_POINT ( 'NONE',  ( 3.450000000000000178, 0.000000000000000000, 5.200000000000009948 ) ) ;
#272 = AXIS2_PLACEMENT_3D ( 'NONE', #81, #104, #80 ) ;
#273 = LOCAL_TIME ( 11, 54, 27.00000000000000000, #31 ) ;
#274 = PERSON_AND_ORGANIZATION_ROLE ( 'creator' ) ;
#275 = CC_DESIGN_PERSON_AND_ORGANIZATION_ASSIGNMENT ( #194, #33, ( #296 ) ) ;
#276 = DIRECTION ( 'NONE',  ( 0.000000000000000000, 0.000000000000000000, 1.000000000000000000 ) ) ;
#277 = DIRECTION ( 'NONE',  ( -1.000000000000000000, 1.224646799147350742E-16, 0.000000000000000000 ) ) ;
#278 =( LENGTH_UNIT ( ) NAMED_UNIT ( * ) SI_UNIT ( .MILLI., .METRE. ) );
#279 = FACE_OUTER_BOUND ( 'NONE', #284, .T. ) ;
#280 = AXIS2_PLACEMENT_3D ( 'NONE', #34, #9, #277 ) ;
#281 = CARTESIAN_POINT ( 'NONE',  ( 3.450000000000000178, 0.000000000000000000, 5.000000000000005329 ) ) ;
#282 = ORIENTED_EDGE ( 'NONE', *, *, #129, .T. ) ;
#283 = ADVANCED_FACE ( 'NONE', ( #279 ), #223, .T. ) ;
#284 = EDGE_LOOP ( 'NONE', ( #159, #71, #210, #179 ) ) ;
#285 = CIRCLE ( 'NONE', #272, 3.450000000000000178 ) ;
#286 = VERTEX_POINT ( 'NONE', #258 ) ;
#287 = AXIS2_PLACEMENT_3D ( 'NONE', #251, #90, #13 ) ;
#288 = DIRECTION ( 'NONE',  ( 0.000000000000000000, -1.000000000000000000, 0.000000000000000000 ) ) ;
#289 = CARTESIAN_POINT ( 'NONE',  ( -3.250000000000000444, 0.000000000000000000, 5.200000000000009948 ) ) ;
#290 = AXIS2_PLACEMENT_3D ( 'NONE', #253, #67, #299 ) ;
#291 = CALENDAR_DATE ( 2022, 20, 6 ) ;
#292 = CARTESIAN_POINT ( 'NONE',  ( 0.000000000000000000, 0.000000000000000000, 255.0000000000000000 ) ) ;
#293 = DESIGN_CONTEXT ( 'detailed design', #57, 'design' ) ;
#294 = ORIENTED_EDGE ( 'NONE', *, *, #304, .F. ) ;
#295 = EDGE_CURVE ( 'NONE', #259, #94, #44, .T. ) ;
#296 = PRODUCT_DEFINITION_FORMATION_WITH_SPECIFIED_SOURCE ( 'LIBOVOLNÝ', '', #112, .NOT_KNOWN. ) ;
#297 = PERSON_AND_ORGANIZATION ( #64, #97 ) ;
#298 = EDGE_CURVE ( 'NONE', #286, #302, #174, .T. ) ;
#299 = DIRECTION ( 'NONE',  ( -1.000000000000000000, 0.000000000000000000, 0.000000000000000000 ) ) ;
#300 = CIRCLE ( 'NONE', #75, 3.250000000000000444 ) ;
#301 = APPROVAL ( #242, 'NEURÈENÝ' ) ;
#302 = VERTEX_POINT ( 'NONE', #149 ) ;
#303 = ORIENTED_EDGE ( 'NONE', *, *, #106, .T. ) ;
#304 = EDGE_CURVE ( 'NONE', #94, #72, #209, .T. ) ;
#305 = EDGE_LOOP ( 'NONE', ( #183, #267, #118, #185 ) ) ;
#306 = LOCAL_TIME ( 11, 54, 27.00000000000000000, #127 ) ;
#307 = CARTESIAN_POINT ( 'NONE',  ( 6.000000000000000888, 7.347880794884120722E-16, 5.000000000000000000 ) ) ;
ENDSEC;
END-ISO-10303-21;
