ISO-10303-21;
HEADER;
FILE_DESCRIPTION (( 'STEP AP203' ),
    '1' );
FILE_NAME ('91af.STEP',
    '2022-06-20T09:32:11',
    ( '' ),
    ( '' ),
    'SwSTEP 2.0',
    'SolidWorks 2019',
    '' );
FILE_SCHEMA (( 'CONFIG_CONTROL_DESIGN' ));
ENDSEC;

DATA;
#1 = DIRECTION ( 'NONE',  ( -0.000000000000000000, -0.000000000000000000, -1.000000000000000000 ) ) ;
#2 = DATE_AND_TIME ( #51, #180 ) ;
#3 = CARTESIAN_POINT ( 'NONE',  ( 0.000000000000000000, 0.000000000000000000, 0.000000000000000000 ) ) ;
#4 = CC_DESIGN_PERSON_AND_ORGANIZATION_ASSIGNMENT ( #169, #8, ( #9 ) ) ;
#5 = FACE_OUTER_BOUND ( 'NONE', #133, .T. ) ;
#6 = DATE_TIME_ROLE ( 'creation_date' ) ;
#7 = AXIS2_PLACEMENT_3D ( 'NONE', #18, #117, #280 ) ;
#8 = PERSON_AND_ORGANIZATION_ROLE ( 'creator' ) ;
#9 = PRODUCT_DEFINITION_FORMATION_WITH_SPECIFIED_SOURCE ( 'LIBOVOLNÝ', '', #45, .NOT_KNOWN. ) ;
#10 = CARTESIAN_POINT ( 'NONE',  ( 6.000000000000000888, 7.347880794884120722E-16, 637.0000000000000000 ) ) ;
#11 = ORIENTED_EDGE ( 'NONE', *, *, #98, .F. ) ;
#12 = EDGE_LOOP ( 'NONE', ( #11, #274, #64, #157 ) ) ;
#13 = AXIS2_PLACEMENT_3D ( 'NONE', #290, #48, #293 ) ;
#14 = EDGE_LOOP ( 'NONE', ( #297, #82, #106, #33 ) ) ;
#15 = ORIENTED_EDGE ( 'NONE', *, *, #86, .F. ) ;
#16 = EDGE_LOOP ( 'NONE', ( #105, #108, #153, #34 ) ) ;
#17 = EDGE_CURVE ( 'NONE', #300, #229, #271, .T. ) ;
#18 = CARTESIAN_POINT ( 'NONE',  ( 0.000000000000000000, 0.000000000000000000, 637.0000000000000000 ) ) ;
#19 = DIRECTION ( 'NONE',  ( 0.000000000000000000, 0.000000000000000000, 1.000000000000000000 ) ) ;
#20 = DIRECTION ( 'NONE',  ( 1.000000000000000000, 0.000000000000000000, 0.000000000000000000 ) ) ;
#21 = VECTOR ( 'NONE', #1, 1000.000000000000000 ) ;
#22 = AXIS2_PLACEMENT_3D ( 'NONE', #240, #213, #170 ) ;
#23 = DIRECTION ( 'NONE',  ( -0.000000000000000000, -0.000000000000000000, -1.000000000000000000 ) ) ;
#24 = CYLINDRICAL_SURFACE ( 'NONE', #7, 6.000000000000000888 ) ;
#25 = PERSON_AND_ORGANIZATION ( #203, #265 ) ;
#26 = CARTESIAN_POINT ( 'NONE',  ( 9.000000000000000000, 1.102182119232617714E-15, 0.000000000000000000 ) ) ;
#27 = CYLINDRICAL_SURFACE ( 'NONE', #235, 9.000000000000000000 ) ;
#28 = DATE_AND_TIME ( #126, #73 ) ;
#29 = FACE_OUTER_BOUND ( 'NONE', #278, .T. ) ;
#30 = AXIS2_PLACEMENT_3D ( 'NONE', #303, #211, #191 ) ;
#31 = DIRECTION ( 'NONE',  ( -1.000000000000000000, 1.224646799147353454E-16, 0.000000000000000000 ) ) ;
#32 = CC_DESIGN_SECURITY_CLASSIFICATION ( #46, ( #9 ) ) ;
#33 = ORIENTED_EDGE ( 'NONE', *, *, #136, .F. ) ;
#34 = ORIENTED_EDGE ( 'NONE', *, *, #116, .T. ) ;
#35 = EDGE_CURVE ( 'NONE', #131, #103, #298, .T. ) ;
#36 = ORIENTED_EDGE ( 'NONE', *, *, #261, .F. ) ;
#37 = ORIENTED_EDGE ( 'NONE', *, *, #86, .T. ) ;
#38 = ORIENTED_EDGE ( 'NONE', *, *, #62, .T. ) ;
#39 = DIRECTION ( 'NONE',  ( -0.000000000000000000, -0.000000000000000000, -1.000000000000000000 ) ) ;
#40 = AXIS2_PLACEMENT_3D ( 'NONE', #97, #53, #168 ) ;
#41 = DIRECTION ( 'NONE',  ( 0.000000000000000000, 0.000000000000000000, 1.000000000000000000 ) ) ;
#42 = CARTESIAN_POINT ( 'NONE',  ( -9.000000000000000000, 0.000000000000000000, 7.000000000000000000 ) ) ;
#43 = CIRCLE ( 'NONE', #284, 6.200000000000001066 ) ;
#44 = FACE_BOUND ( 'NONE', #252, .T. ) ;
#45 = PRODUCT ( '91af', '91af', '', ( #241 ) ) ;
#46 = SECURITY_CLASSIFICATION ( '', '', #165 ) ;
#47 = CARTESIAN_POINT ( 'NONE',  ( -9.000000000000000000, 0.000000000000000000, 0.000000000000000000 ) ) ;
#48 = DIRECTION ( 'NONE',  ( 0.000000000000000000, 0.000000000000000000, 1.000000000000000000 ) ) ;
#49 = CALENDAR_DATE ( 2022, 20, 6 ) ;
#50 = ADVANCED_FACE ( 'NONE', ( #232 ), #143, .T. ) ;
#51 = CALENDAR_DATE ( 2022, 20, 6 ) ;
#52 = VECTOR ( 'NONE', #219, 1000.000000000000000 ) ;
#53 = DIRECTION ( 'NONE',  ( -0.000000000000000000, -0.000000000000000000, -1.000000000000000000 ) ) ;
#54 = APPROVAL_STATUS ( 'not_yet_approved' ) ;
#55 = CARTESIAN_POINT ( 'NONE',  ( -6.200000000000001066, 7.592810154713590821E-16, 7.199999999999984190 ) ) ;
#56 = PERSON_AND_ORGANIZATION ( #203, #265 ) ;
#57 = CARTESIAN_POINT ( 'NONE',  ( 0.000000000000000000, 0.000000000000000000, 637.0000000000000000 ) ) ;
#58 = CC_DESIGN_PERSON_AND_ORGANIZATION_ASSIGNMENT ( #260, #192, ( #46 ) ) ;
#59 = APPROVAL_STATUS ( 'not_yet_approved' ) ;
#60 = AXIS2_PLACEMENT_3D ( 'NONE', #255, #111, #187 ) ;
#61 = VERTEX_POINT ( 'NONE', #47 ) ;
#62 = EDGE_CURVE ( 'NONE', #302, #247, #43, .T. ) ;
#63 = AXIS2_PLACEMENT_3D ( 'NONE', #57, #151, #243 ) ;
#64 = ORIENTED_EDGE ( 'NONE', *, *, #150, .T. ) ;
#65 = CIRCLE ( 'NONE', #147, 6.000000000000000888 ) ;
#66 = FACE_OUTER_BOUND ( 'NONE', #200, .T. ) ;
#67 = DIRECTION ( 'NONE',  ( 1.000000000000000000, 0.000000000000000000, 0.000000000000000000 ) ) ;
#68 = FACE_OUTER_BOUND ( 'NONE', #16, .T. ) ;
#69 = ADVANCED_FACE ( 'NONE', ( #66 ), #88, .F. ) ;
#70 = CARTESIAN_POINT ( 'NONE',  ( 0.000000000000000000, 0.000000000000000000, 637.0000000000000000 ) ) ;
#71 = DIRECTION ( 'NONE',  ( 1.000000000000000000, 0.000000000000000000, 0.000000000000000000 ) ) ;
#72 = COORDINATED_UNIVERSAL_TIME_OFFSET ( 1, 0, .AHEAD. ) ;
#73 = LOCAL_TIME ( 11, 32, 11.00000000000000000, #264 ) ;
#74 = COORDINATED_UNIVERSAL_TIME_OFFSET ( 1, 0, .AHEAD. ) ;
#75 = DATE_AND_TIME ( #123, #149 ) ;
#76 = DIRECTION ( 'NONE',  ( 1.224646799147353207E-16, 1.000000000000000000, -0.000000000000000000 ) ) ;
#77 = APPROVAL_DATE_TIME ( #2, #272 ) ;
#78 = CARTESIAN_POINT ( 'NONE',  ( 6.200000000000001066, 0.000000000000000000, 6.999999999999992006 ) ) ;
#79 = CIRCLE ( 'NONE', #253, 9.000000000000000000 ) ;
#80 = APPROVAL ( #59, 'NEURÈENÝ' ) ;
#81 = COORDINATED_UNIVERSAL_TIME_OFFSET ( 1, 0, .AHEAD. ) ;
#82 = ORIENTED_EDGE ( 'NONE', *, *, #238, .T. ) ;
#83 = EDGE_LOOP ( 'NONE', ( #84, #174 ) ) ;
#84 = ORIENTED_EDGE ( 'NONE', *, *, #35, .T. ) ;
#85 = LOCAL_TIME ( 11, 32, 11.00000000000000000, #81 ) ;
#86 = EDGE_CURVE ( 'NONE', #250, #178, #65, .T. ) ;
#87 = ORIENTED_EDGE ( 'NONE', *, *, #150, .F. ) ;
#88 = TOROIDAL_SURFACE ( 'NONE', #189, 6.200000000000001066, 0.2000000000000000111 ) ;
#89 = CARTESIAN_POINT ( 'NONE',  ( -6.000000000000000888, 0.000000000000000000, 637.0000000000000000 ) ) ;
#90 = FACE_OUTER_BOUND ( 'NONE', #14, .T. ) ;
#91 = CARTESIAN_POINT ( 'NONE',  ( 6.000000000000000888, 7.347880794884120722E-16, 637.0000000000000000 ) ) ;
#92 = CARTESIAN_POINT ( 'NONE',  ( -9.000000000000000000, 0.000000000000000000, 7.000000000000000000 ) ) ;
#93 = DIRECTION ( 'NONE',  ( 1.000000000000000000, 0.000000000000000000, 0.000000000000000000 ) ) ;
#94 = APPROVAL_DATE_TIME ( #28, #156 ) ;
#95 = PERSON_AND_ORGANIZATION ( #203, #265 ) ;
#96 = PERSON_AND_ORGANIZATION ( #203, #265 ) ;
#97 = CARTESIAN_POINT ( 'NONE',  ( 0.000000000000000000, 0.000000000000000000, 7.000000000000000000 ) ) ;
#98 = EDGE_CURVE ( 'NONE', #250, #229, #230, .T. ) ;
#99 = TOROIDAL_SURFACE ( 'NONE', #13, 6.200000000000001066, 0.2000000000000000111 ) ;
#100 = CARTESIAN_POINT ( 'NONE',  ( 6.000000000000000888, 7.347880794884120722E-16, 7.199999999999984190 ) ) ;
#101 = CARTESIAN_POINT ( 'NONE',  ( -6.200000000000001066, 7.592810154713590821E-16, 6.999999999999992006 ) ) ;
#102 = ADVANCED_FACE ( 'NONE', ( #44, #231 ), #134, .T. ) ;
#103 = VERTEX_POINT ( 'NONE', #306 ) ;
#104 = CC_DESIGN_APPROVAL ( #156, ( #112 ) ) ;
#105 = ORIENTED_EDGE ( 'NONE', *, *, #238, .F. ) ;
#106 = ORIENTED_EDGE ( 'NONE', *, *, #261, .T. ) ;
#107 = ADVANCED_FACE ( 'NONE', ( #90 ), #188, .T. ) ;
#108 = ORIENTED_EDGE ( 'NONE', *, *, #35, .F. ) ;
#109 = CIRCLE ( 'NONE', #173, 0.1999999999999996503 ) ;
#110 = DIRECTION ( 'NONE',  ( 1.000000000000000000, 0.000000000000000000, 0.000000000000000000 ) ) ;
#111 = DIRECTION ( 'NONE',  ( -0.000000000000000000, -0.000000000000000000, -1.000000000000000000 ) ) ;
#112 = PRODUCT_DEFINITION ( 'NEZNÁMÝ', '', #9, #215 ) ;
#113 = CARTESIAN_POINT ( 'NONE',  ( 0.000000000000000000, 0.000000000000000000, 7.000000000000000000 ) ) ;
#114 = AXIS2_PLACEMENT_3D ( 'NONE', #266, #121, #286 ) ;
#115 = CARTESIAN_POINT ( 'NONE',  ( 0.000000000000000000, 0.000000000000000000, 0.000000000000000000 ) ) ;
#116 = EDGE_CURVE ( 'NONE', #61, #273, #79, .T. ) ;
#117 = DIRECTION ( 'NONE',  ( -0.000000000000000000, -0.000000000000000000, -1.000000000000000000 ) ) ;
#118 = VECTOR ( 'NONE', #285, 1000.000000000000000 ) ;
#119 = DIRECTION ( 'NONE',  ( 0.000000000000000000, 0.000000000000000000, 1.000000000000000000 ) ) ;
#120 = ADVANCED_BREP_SHAPE_REPRESENTATION ( '91af', ( #218, #276 ), #258 ) ;
#121 = DIRECTION ( 'NONE',  ( 0.000000000000000000, 0.000000000000000000, 1.000000000000000000 ) ) ;
#122 = PERSON_AND_ORGANIZATION_ROLE ( 'design_owner' ) ;
#123 = CALENDAR_DATE ( 2022, 20, 6 ) ;
#124 = CC_DESIGN_DATE_AND_TIME_ASSIGNMENT ( #146, #239, ( #46 ) ) ;
#125 = AXIS2_PLACEMENT_3D ( 'NONE', #257, #19, #208 ) ;
#126 = CALENDAR_DATE ( 2022, 20, 6 ) ;
#127 = CIRCLE ( 'NONE', #22, 9.000000000000000000 ) ;
#128 = CARTESIAN_POINT ( 'NONE',  ( 9.000000000000000000, 1.102182119232617714E-15, 7.000000000000000000 ) ) ;
#129 = PRODUCT_RELATED_PRODUCT_CATEGORY ( 'detail', '', ( #45 ) ) ;
#130 = ORIENTED_EDGE ( 'NONE', *, *, #281, .F. ) ;
#131 = VERTEX_POINT ( 'NONE', #42 ) ;
#132 = APPROVAL_ROLE ( '' ) ;
#133 = EDGE_LOOP ( 'NONE', ( #198, #36 ) ) ;
#134 = PLANE ( 'NONE',  #125 ) ;
#135 = CIRCLE ( 'NONE', #63, 6.000000000000000888 ) ;
#136 = EDGE_CURVE ( 'NONE', #131, #61, #307, .T. ) ;
#137 = DIRECTION ( 'NONE',  ( 1.000000000000000000, 0.000000000000000000, 0.000000000000000000 ) ) ;
#138 = CLOSED_SHELL ( 'NONE', ( #233, #183, #107, #202, #102, #268, #160, #50, #69 ) ) ;
#139 = CARTESIAN_POINT ( 'NONE',  ( -6.000000000000000888, 0.000000000000000000, 637.0000000000000000 ) ) ;
#140 = CARTESIAN_POINT ( 'NONE',  ( 0.000000000000000000, 0.000000000000000000, 0.000000000000000000 ) ) ;
#141 = DIRECTION ( 'NONE',  ( 0.000000000000000000, 0.000000000000000000, 1.000000000000000000 ) ) ;
#142 = APPROVAL_PERSON_ORGANIZATION ( #25, #156, #242 ) ;
#143 = PLANE ( 'NONE',  #197 ) ;
#144 = APPLICATION_PROTOCOL_DEFINITION ( 'international standard', 'config_control_design', 1994, #262 ) ;
#145 = EDGE_CURVE ( 'NONE', #103, #131, #206, .T. ) ;
#146 = DATE_AND_TIME ( #49, #296 ) ;
#147 = AXIS2_PLACEMENT_3D ( 'NONE', #190, #159, #163 ) ;
#148 = PERSON_AND_ORGANIZATION ( #203, #265 ) ;
#149 = LOCAL_TIME ( 11, 32, 11.00000000000000000, #72 ) ;
#150 = EDGE_CURVE ( 'NONE', #178, #300, #254, .T. ) ;
#151 = DIRECTION ( 'NONE',  ( 0.000000000000000000, 0.000000000000000000, 1.000000000000000000 ) ) ;
#152 = ORIENTED_EDGE ( 'NONE', *, *, #177, .T. ) ;
#153 = ORIENTED_EDGE ( 'NONE', *, *, #136, .T. ) ;
#154 = EDGE_LOOP ( 'NONE', ( #15, #277, #182, #87 ) ) ;
#155 = AXIS2_PLACEMENT_3D ( 'NONE', #256, #164, #93 ) ;
#156 = APPROVAL ( #54, 'NEURÈENÝ' ) ;
#157 = ORIENTED_EDGE ( 'NONE', *, *, #17, .T. ) ;
#158 = AXIS2_PLACEMENT_3D ( 'NONE', #236, #41, #71 ) ;
#159 = DIRECTION ( 'NONE',  ( 0.000000000000000000, 0.000000000000000000, 1.000000000000000000 ) ) ;
#160 = ADVANCED_FACE ( 'NONE', ( #259 ), #24, .T. ) ;
#161 = CARTESIAN_POINT ( 'NONE',  ( 0.000000000000000000, 0.000000000000000000, 7.000000000000000000 ) ) ;
#162 = CARTESIAN_POINT ( 'NONE',  ( 0.000000000000000000, 0.000000000000000000, 7.199999999999984190 ) ) ;
#163 = DIRECTION ( 'NONE',  ( 1.000000000000000000, 0.000000000000000000, 0.000000000000000000 ) ) ;
#164 = DIRECTION ( 'NONE',  ( 0.000000000000000000, 0.000000000000000000, 1.000000000000000000 ) ) ;
#165 = SECURITY_CLASSIFICATION_LEVEL ( 'unclassified' ) ;
#166 =( LENGTH_UNIT ( ) NAMED_UNIT ( * ) SI_UNIT ( .MILLI., .METRE. ) );
#167 = DIRECTION ( 'NONE',  ( -1.000000000000000000, 0.000000000000000000, 0.000000000000000000 ) ) ;
#168 = DIRECTION ( 'NONE',  ( 1.000000000000000000, 0.000000000000000000, 0.000000000000000000 ) ) ;
#169 = PERSON_AND_ORGANIZATION ( #203, #265 ) ;
#170 = DIRECTION ( 'NONE',  ( 1.000000000000000000, 0.000000000000000000, 0.000000000000000000 ) ) ;
#171 = CALENDAR_DATE ( 2022, 20, 6 ) ;
#172 = DATE_AND_TIME ( #171, #85 ) ;
#173 = AXIS2_PLACEMENT_3D ( 'NONE', #55, #76, #31 ) ;
#174 = ORIENTED_EDGE ( 'NONE', *, *, #145, .T. ) ;
#175 = ORIENTED_EDGE ( 'NONE', *, *, #289, .T. ) ;
#176 = AXIS2_PLACEMENT_3D ( 'NONE', #199, #275, #67 ) ;
#177 = EDGE_CURVE ( 'NONE', #229, #247, #179, .T. ) ;
#178 = VERTEX_POINT ( 'NONE', #89 ) ;
#179 = CIRCLE ( 'NONE', #30, 0.1999999999999996503 ) ;
#180 = LOCAL_TIME ( 11, 32, 11.00000000000000000, #212 ) ;
#181 = ORIENTED_EDGE ( 'NONE', *, *, #304, .F. ) ;
#182 = ORIENTED_EDGE ( 'NONE', *, *, #304, .T. ) ;
#183 = ADVANCED_FACE ( 'NONE', ( #305 ), #185, .T. ) ;
#184 = VECTOR ( 'NONE', #205, 1000.000000000000000 ) ;
#185 = CYLINDRICAL_SURFACE ( 'NONE', #60, 6.000000000000000888 ) ;
#186 = CIRCLE ( 'NONE', #114, 6.000000000000000888 ) ;
#187 = DIRECTION ( 'NONE',  ( -1.000000000000000000, 0.000000000000000000, 0.000000000000000000 ) ) ;
#188 = CYLINDRICAL_SURFACE ( 'NONE', #225, 9.000000000000000000 ) ;
#189 = AXIS2_PLACEMENT_3D ( 'NONE', #162, #282, #137 ) ;
#190 = CARTESIAN_POINT ( 'NONE',  ( 0.000000000000000000, 0.000000000000000000, 637.0000000000000000 ) ) ;
#191 = DIRECTION ( 'NONE',  ( 0.000000000000000000, 0.000000000000000000, -1.000000000000000000 ) ) ;
#192 = PERSON_AND_ORGANIZATION_ROLE ( 'classification_officer' ) ;
#193 = CARTESIAN_POINT ( 'NONE',  ( 0.000000000000000000, 0.000000000000000000, 7.000000000000000000 ) ) ;
#194 = PERSON_AND_ORGANIZATION_ROLE ( 'creator' ) ;
#195 = APPLICATION_PROTOCOL_DEFINITION ( 'international standard', 'config_control_design', 1994, #279 ) ;
#196 = DIRECTION ( 'NONE',  ( 1.000000000000000000, 0.000000000000000000, -0.000000000000000000 ) ) ;
#197 = AXIS2_PLACEMENT_3D ( 'NONE', #70, #141, #283 ) ;
#198 = ORIENTED_EDGE ( 'NONE', *, *, #116, .F. ) ;
#199 = CARTESIAN_POINT ( 'NONE',  ( 0.000000000000000000, 0.000000000000000000, 7.199999999999984190 ) ) ;
#200 = EDGE_LOOP ( 'NONE', ( #130, #181, #152, #224 ) ) ;
#201 = CIRCLE ( 'NONE', #40, 6.200000000000001066 ) ;
#202 = ADVANCED_FACE ( 'NONE', ( #68 ), #27, .T. ) ;
#203 = PERSON ( 'NEURÈENÝ', 'NEURÈENÝ', 'NEURÈENÝ', ('NEURÈENÝ'), ('NEURÈENÝ'), ('NEURÈENÝ') ) ;
#204 = DIRECTION ( 'NONE',  ( -1.000000000000000000, 0.000000000000000000, 0.000000000000000000 ) ) ;
#205 = DIRECTION ( 'NONE',  ( -0.000000000000000000, -0.000000000000000000, -1.000000000000000000 ) ) ;
#206 = CIRCLE ( 'NONE', #155, 9.000000000000000000 ) ;
#207 = UNCERTAINTY_MEASURE_WITH_UNIT (LENGTH_MEASURE( 1.000000000000000082E-05 ), #166, 'distance_accuracy_value', 'NONE');
#208 = DIRECTION ( 'NONE',  ( 1.000000000000000000, 0.000000000000000000, -0.000000000000000000 ) ) ;
#209 = CC_DESIGN_PERSON_AND_ORGANIZATION_ASSIGNMENT ( #96, #122, ( #45 ) ) ;
#210 = DIRECTION ( 'NONE',  ( 0.000000000000000000, 0.000000000000000000, 1.000000000000000000 ) ) ;
#211 = DIRECTION ( 'NONE',  ( 0.000000000000000000, -1.000000000000000000, 0.000000000000000000 ) ) ;
#212 = COORDINATED_UNIVERSAL_TIME_OFFSET ( 1, 0, .AHEAD. ) ;
#213 = DIRECTION ( 'NONE',  ( 0.000000000000000000, 0.000000000000000000, 1.000000000000000000 ) ) ;
#214 = AXIS2_PLACEMENT_3D ( 'NONE', #3, #119, #196 ) ;
#215 = DESIGN_CONTEXT ( 'detailed design', #279, 'design' ) ;
#216 = DIRECTION ( 'NONE',  ( -0.000000000000000000, -0.000000000000000000, -1.000000000000000000 ) ) ;
#217 = APPROVAL_STATUS ( 'not_yet_approved' ) ;
#218 = MANIFOLD_SOLID_BREP ( 'Zaoblit1', #138 ) ;
#219 = DIRECTION ( 'NONE',  ( -0.000000000000000000, -0.000000000000000000, -1.000000000000000000 ) ) ;
#220 = PERSON_AND_ORGANIZATION ( #203, #265 ) ;
#221 = APPROVAL_PERSON_ORGANIZATION ( #148, #80, #132 ) ;
#222 = EDGE_CURVE ( 'NONE', #178, #250, #135, .T. ) ;
#223 = CARTESIAN_POINT ( 'NONE',  ( -6.000000000000000888, 0.000000000000000000, 7.199999999999984190 ) ) ;
#224 = ORIENTED_EDGE ( 'NONE', *, *, #62, .F. ) ;
#225 = AXIS2_PLACEMENT_3D ( 'NONE', #161, #23, #204 ) ;
#226 = ORIENTED_EDGE ( 'NONE', *, *, #17, .F. ) ;
#227 = ORIENTED_EDGE ( 'NONE', *, *, #177, .F. ) ;
#228 = ORIENTED_EDGE ( 'NONE', *, *, #289, .F. ) ;
#229 = VERTEX_POINT ( 'NONE', #100 ) ;
#230 = LINE ( 'NONE', #91, #184 ) ;
#231 = FACE_OUTER_BOUND ( 'NONE', #83, .T. ) ;
#232 = FACE_OUTER_BOUND ( 'NONE', #251, .T. ) ;
#233 = ADVANCED_FACE ( 'NONE', ( #29 ), #99, .F. ) ;
#234 = DIRECTION ( 'NONE',  ( 0.000000000000000000, 0.000000000000000000, 1.000000000000000000 ) ) ;
#235 = AXIS2_PLACEMENT_3D ( 'NONE', #193, #216, #167 ) ;
#236 = CARTESIAN_POINT ( 'NONE',  ( 0.000000000000000000, 0.000000000000000000, 7.000000000000000000 ) ) ;
#237 = PRODUCT_DEFINITION_SHAPE ( 'NONE', 'NONE',  #112 ) ;
#238 = EDGE_CURVE ( 'NONE', #103, #273, #245, .T. ) ;
#239 = DATE_TIME_ROLE ( 'classification_date' ) ;
#240 = CARTESIAN_POINT ( 'NONE',  ( 0.000000000000000000, 0.000000000000000000, 0.000000000000000000 ) ) ;
#241 = MECHANICAL_CONTEXT ( 'NONE', #262, 'mechanical' ) ;
#242 = APPROVAL_ROLE ( '' ) ;
#243 = DIRECTION ( 'NONE',  ( 1.000000000000000000, 0.000000000000000000, 0.000000000000000000 ) ) ;
#244 = CC_DESIGN_PERSON_AND_ORGANIZATION_ASSIGNMENT ( #56, #194, ( #112 ) ) ;
#245 = LINE ( 'NONE', #128, #52 ) ;
#246 = APPROVAL_PERSON_ORGANIZATION ( #95, #272, #291 ) ;
#247 = VERTEX_POINT ( 'NONE', #78 ) ;
#248 = CC_DESIGN_PERSON_AND_ORGANIZATION_ASSIGNMENT ( #220, #287, ( #9 ) ) ;
#249 = APPROVAL_DATE_TIME ( #172, #80 ) ;
#250 = VERTEX_POINT ( 'NONE', #10 ) ;
#251 = EDGE_LOOP ( 'NONE', ( #299, #37 ) ) ;
#252 = EDGE_LOOP ( 'NONE', ( #175, #38 ) ) ;
#253 = AXIS2_PLACEMENT_3D ( 'NONE', #115, #210, #110 ) ;
#254 = LINE ( 'NONE', #139, #21 ) ;
#255 = CARTESIAN_POINT ( 'NONE',  ( 0.000000000000000000, 0.000000000000000000, 637.0000000000000000 ) ) ;
#256 = CARTESIAN_POINT ( 'NONE',  ( 0.000000000000000000, 0.000000000000000000, 7.000000000000000000 ) ) ;
#257 = CARTESIAN_POINT ( 'NONE',  ( 0.000000000000000000, 0.000000000000000000, 7.000000000000000000 ) ) ;
#258 =( GEOMETRIC_REPRESENTATION_CONTEXT ( 3 ) GLOBAL_UNCERTAINTY_ASSIGNED_CONTEXT ( ( #207 ) ) GLOBAL_UNIT_ASSIGNED_CONTEXT ( ( #166, #288, #263 ) ) REPRESENTATION_CONTEXT ( 'NONE', 'WORKASPACE' ) );
#259 = FACE_OUTER_BOUND ( 'NONE', #12, .T. ) ;
#260 = PERSON_AND_ORGANIZATION ( #203, #265 ) ;
#261 = EDGE_CURVE ( 'NONE', #273, #61, #127, .T. ) ;
#262 = APPLICATION_CONTEXT ( 'configuration controlled 3d designs of mechanical parts and assemblies' ) ;
#263 =( NAMED_UNIT ( * ) SI_UNIT ( $, .STERADIAN. ) SOLID_ANGLE_UNIT ( ) );
#264 = COORDINATED_UNIVERSAL_TIME_OFFSET ( 1, 0, .AHEAD. ) ;
#265 = ORGANIZATION ( 'NEURÈENÝ', 'NEURÈENÝ', '' ) ;
#266 = CARTESIAN_POINT ( 'NONE',  ( 0.000000000000000000, 0.000000000000000000, 7.199999999999984190 ) ) ;
#267 = DIRECTION ( 'NONE',  ( 1.000000000000000000, 0.000000000000000000, 0.000000000000000000 ) ) ;
#268 = ADVANCED_FACE ( 'NONE', ( #5 ), #269, .F. ) ;
#269 = PLANE ( 'NONE',  #214 ) ;
#270 = SHAPE_DEFINITION_REPRESENTATION ( #237, #120 ) ;
#271 = CIRCLE ( 'NONE', #176, 6.000000000000000888 ) ;
#272 = APPROVAL ( #217, 'NEURÈENÝ' ) ;
#273 = VERTEX_POINT ( 'NONE', #26 ) ;
#274 = ORIENTED_EDGE ( 'NONE', *, *, #222, .F. ) ;
#275 = DIRECTION ( 'NONE',  ( 0.000000000000000000, 0.000000000000000000, 1.000000000000000000 ) ) ;
#276 = AXIS2_PLACEMENT_3D ( 'NONE', #140, #234, #267 ) ;
#277 = ORIENTED_EDGE ( 'NONE', *, *, #98, .T. ) ;
#278 = EDGE_LOOP ( 'NONE', ( #226, #295, #228, #227 ) ) ;
#279 = APPLICATION_CONTEXT ( 'configuration controlled 3d designs of mechanical parts and assemblies' ) ;
#280 = DIRECTION ( 'NONE',  ( -1.000000000000000000, 0.000000000000000000, 0.000000000000000000 ) ) ;
#281 = EDGE_CURVE ( 'NONE', #300, #302, #109, .T. ) ;
#282 = DIRECTION ( 'NONE',  ( 0.000000000000000000, 0.000000000000000000, 1.000000000000000000 ) ) ;
#283 = DIRECTION ( 'NONE',  ( 1.000000000000000000, 0.000000000000000000, -0.000000000000000000 ) ) ;
#284 = AXIS2_PLACEMENT_3D ( 'NONE', #113, #39, #20 ) ;
#285 = DIRECTION ( 'NONE',  ( -0.000000000000000000, -0.000000000000000000, -1.000000000000000000 ) ) ;
#286 = DIRECTION ( 'NONE',  ( 1.000000000000000000, 0.000000000000000000, 0.000000000000000000 ) ) ;
#287 = PERSON_AND_ORGANIZATION_ROLE ( 'design_supplier' ) ;
#288 =( NAMED_UNIT ( * ) PLANE_ANGLE_UNIT ( ) SI_UNIT ( $, .RADIAN. ) );
#289 = EDGE_CURVE ( 'NONE', #247, #302, #201, .T. ) ;
#290 = CARTESIAN_POINT ( 'NONE',  ( 0.000000000000000000, 0.000000000000000000, 7.199999999999984190 ) ) ;
#291 = APPROVAL_ROLE ( '' ) ;
#292 = CC_DESIGN_APPROVAL ( #272, ( #9 ) ) ;
#293 = DIRECTION ( 'NONE',  ( 1.000000000000000000, 0.000000000000000000, 0.000000000000000000 ) ) ;
#294 = CC_DESIGN_DATE_AND_TIME_ASSIGNMENT ( #75, #6, ( #112 ) ) ;
#295 = ORIENTED_EDGE ( 'NONE', *, *, #281, .T. ) ;
#296 = LOCAL_TIME ( 11, 32, 11.00000000000000000, #74 ) ;
#297 = ORIENTED_EDGE ( 'NONE', *, *, #145, .F. ) ;
#298 = CIRCLE ( 'NONE', #158, 9.000000000000000000 ) ;
#299 = ORIENTED_EDGE ( 'NONE', *, *, #222, .T. ) ;
#300 = VERTEX_POINT ( 'NONE', #223 ) ;
#301 = CC_DESIGN_APPROVAL ( #80, ( #46 ) ) ;
#302 = VERTEX_POINT ( 'NONE', #101 ) ;
#303 = CARTESIAN_POINT ( 'NONE',  ( 6.200000000000001066, 0.000000000000000000, 7.199999999999984190 ) ) ;
#304 = EDGE_CURVE ( 'NONE', #229, #300, #186, .T. ) ;
#305 = FACE_OUTER_BOUND ( 'NONE', #154, .T. ) ;
#306 = CARTESIAN_POINT ( 'NONE',  ( 9.000000000000000000, 1.102182119232617714E-15, 7.000000000000000000 ) ) ;
#307 = LINE ( 'NONE', #92, #118 ) ;
ENDSEC;
END-ISO-10303-21;
