ISO-10303-21;
HEADER;
FILE_DESCRIPTION (( 'STEP AP203' ),
    '1' );
FILE_NAME ('dec5.STEP',
    '2022-06-20T09:46:26',
    ( '' ),
    ( '' ),
    'SwSTEP 2.0',
    'SolidWorks 2019',
    '' );
FILE_SCHEMA (( 'CONFIG_CONTROL_DESIGN' ));
ENDSEC;

DATA;
#1 = ORIENTED_EDGE ( 'NONE', *, *, #191, .T. ) ;
#2 = APPROVAL ( #96, 'NEURÈENÝ' ) ;
#3 = ORIENTED_EDGE ( 'NONE', *, *, #273, .F. ) ;
#4 = CARTESIAN_POINT ( 'NONE',  ( 0.000000000000000000, 0.000000000000000000, 5.199999999999982414 ) ) ;
#5 = EDGE_CURVE ( 'NONE', #230, #116, #179, .T. ) ;
#6 = CARTESIAN_POINT ( 'NONE',  ( -4.099999999999999645, 0.000000000000000000, 635.0000000000000000 ) ) ;
#7 = DIRECTION ( 'NONE',  ( 0.000000000000000000, 0.000000000000000000, -1.000000000000000000 ) ) ;
#8 = CARTESIAN_POINT ( 'NONE',  ( 4.299999999999998934, 0.000000000000000000, 4.999999999999991118 ) ) ;
#9 = CC_DESIGN_PERSON_AND_ORGANIZATION_ASSIGNMENT ( #151, #293, ( #90 ) ) ;
#10 = DIRECTION ( 'NONE',  ( -1.000000000000000000, 0.000000000000000000, 0.000000000000000000 ) ) ;
#11 = EDGE_CURVE ( 'NONE', #73, #137, #20, .T. ) ;
#12 = CARTESIAN_POINT ( 'NONE',  ( -4.299999999999998934, 5.265981236333617484E-16, 4.999999999999991118 ) ) ;
#13 = ORIENTED_EDGE ( 'NONE', *, *, #101, .F. ) ;
#14 = DIRECTION ( 'NONE',  ( 0.000000000000000000, -1.000000000000000000, 0.000000000000000000 ) ) ;
#15 = ORIENTED_EDGE ( 'NONE', *, *, #127, .F. ) ;
#16 = EDGE_CURVE ( 'NONE', #116, #137, #59, .T. ) ;
#17 = ORGANIZATION ( 'NEURÈENÝ', 'NEURÈENÝ', '' ) ;
#18 = APPROVAL_STATUS ( 'not_yet_approved' ) ;
#19 =( NAMED_UNIT ( * ) PLANE_ANGLE_UNIT ( ) SI_UNIT ( $, .RADIAN. ) );
#20 = LINE ( 'NONE', #143, #291 ) ;
#21 = PRODUCT_DEFINITION_SHAPE ( 'NONE', 'NONE',  #156 ) ;
#22 = ORIENTED_EDGE ( 'NONE', *, *, #11, .T. ) ;
#23 = TOROIDAL_SURFACE ( 'NONE', #208, 4.299999999999998934, 0.2000000000000000111 ) ;
#24 = APPLICATION_PROTOCOL_DEFINITION ( 'international standard', 'config_control_design', 1994, #274 ) ;
#25 = DIRECTION ( 'NONE',  ( -0.000000000000000000, -0.000000000000000000, -1.000000000000000000 ) ) ;
#26 = DATE_AND_TIME ( #270, #74 ) ;
#27 = ORIENTED_EDGE ( 'NONE', *, *, #211, .T. ) ;
#28 = EDGE_CURVE ( 'NONE', #230, #73, #262, .T. ) ;
#29 = CYLINDRICAL_SURFACE ( 'NONE', #306, 4.099999999999999645 ) ;
#30 = LINE ( 'NONE', #294, #168 ) ;
#31 = FACE_OUTER_BOUND ( 'NONE', #39, .T. ) ;
#32 = LOCAL_TIME ( 11, 46, 26.00000000000000000, #266 ) ;
#33 = ADVANCED_FACE ( 'NONE', ( #119 ), #264, .T. ) ;
#34 = CARTESIAN_POINT ( 'NONE',  ( 7.000000000000000000, 8.572527594031473190E-16, 5.000000000000000000 ) ) ;
#35 = ORIENTED_EDGE ( 'NONE', *, *, #127, .T. ) ;
#36 = ADVANCED_FACE ( 'NONE', ( #69 ), #29, .T. ) ;
#37 = AXIS2_PLACEMENT_3D ( 'NONE', #102, #295, #79 ) ;
#38 = CARTESIAN_POINT ( 'NONE',  ( 0.000000000000000000, 0.000000000000000000, 635.0000000000000000 ) ) ;
#39 = EDGE_LOOP ( 'NONE', ( #305, #288, #86, #113 ) ) ;
#40 = ADVANCED_BREP_SHAPE_REPRESENTATION ( 'dec5', ( #232, #97 ), #289 ) ;
#41 = FACE_BOUND ( 'NONE', #258, .T. ) ;
#42 = ORIENTED_EDGE ( 'NONE', *, *, #16, .F. ) ;
#43 = APPROVAL_ROLE ( '' ) ;
#44 = LOCAL_TIME ( 11, 46, 26.00000000000000000, #115 ) ;
#45 = DIRECTION ( 'NONE',  ( -1.000000000000000000, 0.000000000000000000, 0.000000000000000000 ) ) ;
#46 = EDGE_CURVE ( 'NONE', #94, #201, #182, .T. ) ;
#47 = CARTESIAN_POINT ( 'NONE',  ( 4.099999999999999645, 5.021051876504147385E-16, 635.0000000000000000 ) ) ;
#48 = SECURITY_CLASSIFICATION ( '', '', #122 ) ;
#49 = PRODUCT ( 'dec5', 'dec5', '', ( #302 ) ) ;
#50 = DIRECTION ( 'NONE',  ( -0.000000000000000000, -0.000000000000000000, -1.000000000000000000 ) ) ;
#51 = CALENDAR_DATE ( 2022, 20, 6 ) ;
#52 = EDGE_LOOP ( 'NONE', ( #176, #42, #35, #240 ) ) ;
#53 = CARTESIAN_POINT ( 'NONE',  ( 0.000000000000000000, 0.000000000000000000, 0.000000000000000000 ) ) ;
#54 = TOROIDAL_SURFACE ( 'NONE', #149, 4.299999999999998934, 0.2000000000000000111 ) ;
#55 = PERSON_AND_ORGANIZATION_ROLE ( 'creator' ) ;
#56 = DIRECTION ( 'NONE',  ( 1.000000000000000000, 0.000000000000000000, 0.000000000000000000 ) ) ;
#57 = CARTESIAN_POINT ( 'NONE',  ( 0.000000000000000000, 0.000000000000000000, 5.000000000000000000 ) ) ;
#58 = AXIS2_PLACEMENT_3D ( 'NONE', #133, #249, #125 ) ;
#59 = CIRCLE ( 'NONE', #152, 4.099999999999999645 ) ;
#60 = ADVANCED_FACE ( 'NONE', ( #142 ), #23, .F. ) ;
#61 = CARTESIAN_POINT ( 'NONE',  ( 4.099999999999999645, 5.021051876504147385E-16, 5.199999999999982414 ) ) ;
#62 = ORIENTED_EDGE ( 'NONE', *, *, #162, .F. ) ;
#63 = FACE_OUTER_BOUND ( 'NONE', #52, .T. ) ;
#64 = AXIS2_PLACEMENT_3D ( 'NONE', #53, #123, #225 ) ;
#65 = EDGE_LOOP ( 'NONE', ( #161, #237, #134, #88 ) ) ;
#66 = ADVANCED_FACE ( 'NONE', ( #292 ), #269, .F. ) ;
#67 = CALENDAR_DATE ( 2022, 20, 6 ) ;
#68 = DATE_AND_TIME ( #172, #277 ) ;
#69 = FACE_OUTER_BOUND ( 'NONE', #65, .T. ) ;
#70 = PERSON_AND_ORGANIZATION_ROLE ( 'creator' ) ;
#71 = EDGE_LOOP ( 'NONE', ( #220, #3, #22, #242 ) ) ;
#72 = APPROVAL_ROLE ( '' ) ;
#73 = VERTEX_POINT ( 'NONE', #6 ) ;
#74 = LOCAL_TIME ( 11, 46, 26.00000000000000000, #77 ) ;
#75 = VERTEX_POINT ( 'NONE', #84 ) ;
#76 = DIRECTION ( 'NONE',  ( -0.000000000000000000, -0.000000000000000000, -1.000000000000000000 ) ) ;
#77 = COORDINATED_UNIVERSAL_TIME_OFFSET ( 1, 0, .AHEAD. ) ;
#78 = DIRECTION ( 'NONE',  ( 0.000000000000000000, 0.000000000000000000, 1.000000000000000000 ) ) ;
#79 = DIRECTION ( 'NONE',  ( -1.000000000000000000, 0.000000000000000000, 0.000000000000000000 ) ) ;
#80 = COORDINATED_UNIVERSAL_TIME_OFFSET ( 1, 0, .AHEAD. ) ;
#81 = CC_DESIGN_DATE_AND_TIME_ASSIGNMENT ( #26, #222, ( #48 ) ) ;
#82 = EDGE_CURVE ( 'NONE', #201, #94, #239, .T. ) ;
#83 = FACE_OUTER_BOUND ( 'NONE', #130, .T. ) ;
#84 = CARTESIAN_POINT ( 'NONE',  ( -7.000000000000000000, 0.000000000000000000, 5.000000000000000000 ) ) ;
#85 = CARTESIAN_POINT ( 'NONE',  ( 0.000000000000000000, 0.000000000000000000, 0.000000000000000000 ) ) ;
#86 = ORIENTED_EDGE ( 'NONE', *, *, #46, .T. ) ;
#87 = DIRECTION ( 'NONE',  ( 1.000000000000000000, 0.000000000000000000, 0.000000000000000000 ) ) ;
#88 = ORIENTED_EDGE ( 'NONE', *, *, #11, .F. ) ;
#89 = EDGE_CURVE ( 'NONE', #171, #94, #164, .T. ) ;
#90 = PRODUCT_DEFINITION_FORMATION_WITH_SPECIFIED_SOURCE ( 'LIBOVOLNÝ', '', #49, .NOT_KNOWN. ) ;
#91 = APPROVAL_DATE_TIME ( #169, #280 ) ;
#92 = ORIENTED_EDGE ( 'NONE', *, *, #273, .T. ) ;
#93 = PLANE ( 'NONE',  #112 ) ;
#94 = VERTEX_POINT ( 'NONE', #105 ) ;
#95 = DIRECTION ( 'NONE',  ( -1.000000000000000000, 0.000000000000000000, 0.000000000000000000 ) ) ;
#96 = APPROVAL_STATUS ( 'not_yet_approved' ) ;
#97 = AXIS2_PLACEMENT_3D ( 'NONE', #170, #307, #87 ) ;
#98 = DIRECTION ( 'NONE',  ( 0.000000000000000000, 0.000000000000000000, 1.000000000000000000 ) ) ;
#99 = EDGE_LOOP ( 'NONE', ( #13, #150, #110, #15 ) ) ;
#100 = CARTESIAN_POINT ( 'NONE',  ( 0.000000000000000000, 0.000000000000000000, 5.000000000000000000 ) ) ;
#101 = EDGE_CURVE ( 'NONE', #137, #116, #205, .T. ) ;
#102 = CARTESIAN_POINT ( 'NONE',  ( 0.000000000000000000, 0.000000000000000000, 5.000000000000000000 ) ) ;
#103 = CIRCLE ( 'NONE', #283, 4.099999999999999645 ) ;
#104 = VECTOR ( 'NONE', #76, 1000.000000000000000 ) ;
#105 = CARTESIAN_POINT ( 'NONE',  ( 7.000000000000000000, 8.572527594031473190E-16, 0.000000000000000000 ) ) ;
#106 = CARTESIAN_POINT ( 'NONE',  ( 0.000000000000000000, 0.000000000000000000, 635.0000000000000000 ) ) ;
#107 = PRODUCT_RELATED_PRODUCT_CATEGORY ( 'detail', '', ( #49 ) ) ;
#108 = AXIS2_PLACEMENT_3D ( 'NONE', #253, #129, #10 ) ;
#109 = DIRECTION ( 'NONE',  ( 0.000000000000000000, 0.000000000000000000, 1.000000000000000000 ) ) ;
#110 = ORIENTED_EDGE ( 'NONE', *, *, #223, .F. ) ;
#111 = PERSON_AND_ORGANIZATION ( #296, #17 ) ;
#112 = AXIS2_PLACEMENT_3D ( 'NONE', #167, #174, #284 ) ;
#113 = ORIENTED_EDGE ( 'NONE', *, *, #191, .F. ) ;
#114 = APPROVAL_PERSON_ORGANIZATION ( #154, #2, #250 ) ;
#115 = COORDINATED_UNIVERSAL_TIME_OFFSET ( 1, 0, .AHEAD. ) ;
#116 = VERTEX_POINT ( 'NONE', #61 ) ;
#117 = CC_DESIGN_DATE_AND_TIME_ASSIGNMENT ( #68, #233, ( #156 ) ) ;
#118 = PERSON_AND_ORGANIZATION_ROLE ( 'classification_officer' ) ;
#119 = FACE_OUTER_BOUND ( 'NONE', #71, .T. ) ;
#120 = CIRCLE ( 'NONE', #224, 0.1999999999999996503 ) ;
#121 = DIRECTION ( 'NONE',  ( 1.000000000000000000, 0.000000000000000000, 0.000000000000000000 ) ) ;
#122 = SECURITY_CLASSIFICATION_LEVEL ( 'unclassified' ) ;
#123 = DIRECTION ( 'NONE',  ( 0.000000000000000000, 0.000000000000000000, 1.000000000000000000 ) ) ;
#124 = DIRECTION ( 'NONE',  ( -1.000000000000000000, 1.224646799147353454E-16, 0.000000000000000000 ) ) ;
#125 = DIRECTION ( 'NONE',  ( 1.000000000000000000, 0.000000000000000000, 0.000000000000000000 ) ) ;
#126 = CIRCLE ( 'NONE', #260, 7.000000000000000000 ) ;
#127 = EDGE_CURVE ( 'NONE', #116, #188, #120, .T. ) ;
#128 = CIRCLE ( 'NONE', #244, 0.1999999999999996503 ) ;
#129 = DIRECTION ( 'NONE',  ( -0.000000000000000000, -0.000000000000000000, -1.000000000000000000 ) ) ;
#130 = EDGE_LOOP ( 'NONE', ( #214, #62, #1, #218 ) ) ;
#131 = CLOSED_SHELL ( 'NONE', ( #60, #36, #175, #259, #298, #66, #33, #146, #282 ) ) ;
#132 = AXIS2_PLACEMENT_3D ( 'NONE', #85, #78, #206 ) ;
#133 = CARTESIAN_POINT ( 'NONE',  ( 0.000000000000000000, 0.000000000000000000, 5.000000000000000000 ) ) ;
#134 = ORIENTED_EDGE ( 'NONE', *, *, #16, .T. ) ;
#135 = APPROVAL ( #281, 'NEURÈENÝ' ) ;
#136 = CARTESIAN_POINT ( 'NONE',  ( 0.000000000000000000, 0.000000000000000000, 5.199999999999982414 ) ) ;
#137 = VERTEX_POINT ( 'NONE', #212 ) ;
#138 = COORDINATED_UNIVERSAL_TIME_OFFSET ( 1, 0, .AHEAD. ) ;
#139 = EDGE_CURVE ( 'NONE', #263, #188, #255, .T. ) ;
#140 = DIRECTION ( 'NONE',  ( 1.000000000000000000, 0.000000000000000000, 0.000000000000000000 ) ) ;
#141 = VECTOR ( 'NONE', #275, 1000.000000000000000 ) ;
#142 = FACE_OUTER_BOUND ( 'NONE', #99, .T. ) ;
#143 = CARTESIAN_POINT ( 'NONE',  ( -4.099999999999999645, 0.000000000000000000, 635.0000000000000000 ) ) ;
#144 = PERSON_AND_ORGANIZATION ( #296, #17 ) ;
#145 = CARTESIAN_POINT ( 'NONE',  ( 0.000000000000000000, 0.000000000000000000, 635.0000000000000000 ) ) ;
#146 = ADVANCED_FACE ( 'NONE', ( #297 ), #153, .T. ) ;
#147 = CARTESIAN_POINT ( 'NONE',  ( 0.000000000000000000, 0.000000000000000000, 0.000000000000000000 ) ) ;
#148 = PERSON_AND_ORGANIZATION ( #296, #17 ) ;
#149 = AXIS2_PLACEMENT_3D ( 'NONE', #136, #231, #140 ) ;
#150 = ORIENTED_EDGE ( 'NONE', *, *, #197, .T. ) ;
#151 = PERSON_AND_ORGANIZATION ( #296, #17 ) ;
#152 = AXIS2_PLACEMENT_3D ( 'NONE', #178, #204, #245 ) ;
#153 = PLANE ( 'NONE',  #200 ) ;
#154 = PERSON_AND_ORGANIZATION ( #296, #17 ) ;
#155 = DIRECTION ( 'NONE',  ( 1.000000000000000000, 0.000000000000000000, -0.000000000000000000 ) ) ;
#156 = PRODUCT_DEFINITION ( 'NEZNÁMÝ', '', #90, #236 ) ;
#157 = AXIS2_PLACEMENT_3D ( 'NONE', #238, #50, #95 ) ;
#158 = DIRECTION ( 'NONE',  ( 1.000000000000000000, 0.000000000000000000, 0.000000000000000000 ) ) ;
#159 = EDGE_LOOP ( 'NONE', ( #279, #257 ) ) ;
#160 = DIRECTION ( 'NONE',  ( 1.000000000000000000, 0.000000000000000000, 0.000000000000000000 ) ) ;
#161 = ORIENTED_EDGE ( 'NONE', *, *, #28, .F. ) ;
#162 = EDGE_CURVE ( 'NONE', #75, #171, #126, .T. ) ;
#163 = AXIS2_PLACEMENT_3D ( 'NONE', #147, #221, #121 ) ;
#164 = LINE ( 'NONE', #187, #141 ) ;
#165 = ORIENTED_EDGE ( 'NONE', *, *, #28, .T. ) ;
#166 = UNCERTAINTY_MEASURE_WITH_UNIT (LENGTH_MEASURE( 1.000000000000000082E-05 ), #216, 'distance_accuracy_value', 'NONE');
#167 = CARTESIAN_POINT ( 'NONE',  ( 0.000000000000000000, 0.000000000000000000, 5.000000000000000000 ) ) ;
#168 = VECTOR ( 'NONE', #183, 1000.000000000000000 ) ;
#169 = DATE_AND_TIME ( #301, #32 ) ;
#170 = CARTESIAN_POINT ( 'NONE',  ( 0.000000000000000000, 0.000000000000000000, 0.000000000000000000 ) ) ;
#171 = VERTEX_POINT ( 'NONE', #34 ) ;
#172 = CALENDAR_DATE ( 2022, 20, 6 ) ;
#173 = DIRECTION ( 'NONE',  ( 1.000000000000000000, 0.000000000000000000, 0.000000000000000000 ) ) ;
#174 = DIRECTION ( 'NONE',  ( 0.000000000000000000, 0.000000000000000000, 1.000000000000000000 ) ) ;
#175 = ADVANCED_FACE ( 'NONE', ( #31 ), #276, .T. ) ;
#176 = ORIENTED_EDGE ( 'NONE', *, *, #197, .F. ) ;
#177 = DATE_AND_TIME ( #51, #252 ) ;
#178 = CARTESIAN_POINT ( 'NONE',  ( 0.000000000000000000, 0.000000000000000000, 5.199999999999982414 ) ) ;
#179 = LINE ( 'NONE', #47, #104 ) ;
#180 = CC_DESIGN_PERSON_AND_ORGANIZATION_ASSIGNMENT ( #148, #118, ( #48 ) ) ;
#181 = DIRECTION ( 'NONE',  ( -0.000000000000000000, -0.000000000000000000, -1.000000000000000000 ) ) ;
#182 = CIRCLE ( 'NONE', #163, 7.000000000000000000 ) ;
#183 = DIRECTION ( 'NONE',  ( -0.000000000000000000, -0.000000000000000000, -1.000000000000000000 ) ) ;
#184 = APPLICATION_CONTEXT ( 'configuration controlled 3d designs of mechanical parts and assemblies' ) ;
#185 = DIRECTION ( 'NONE',  ( 1.000000000000000000, 0.000000000000000000, 0.000000000000000000 ) ) ;
#186 = DIRECTION ( 'NONE',  ( 0.000000000000000000, 0.000000000000000000, 1.000000000000000000 ) ) ;
#187 = CARTESIAN_POINT ( 'NONE',  ( 7.000000000000000000, 8.572527594031473190E-16, 5.000000000000000000 ) ) ;
#188 = VERTEX_POINT ( 'NONE', #8 ) ;
#189 =( NAMED_UNIT ( * ) SI_UNIT ( $, .STERADIAN. ) SOLID_ANGLE_UNIT ( ) );
#190 = EDGE_LOOP ( 'NONE', ( #92, #165 ) ) ;
#191 = EDGE_CURVE ( 'NONE', #75, #201, #30, .T. ) ;
#192 = APPLICATION_PROTOCOL_DEFINITION ( 'international standard', 'config_control_design', 1994, #184 ) ;
#193 = AXIS2_PLACEMENT_3D ( 'NONE', #209, #271, #185 ) ;
#194 = CC_DESIGN_SECURITY_CLASSIFICATION ( #48, ( #90 ) ) ;
#195 = PERSON_AND_ORGANIZATION ( #296, #17 ) ;
#196 = DIRECTION ( 'NONE',  ( -0.000000000000000000, -0.000000000000000000, -1.000000000000000000 ) ) ;
#197 = EDGE_CURVE ( 'NONE', #137, #263, #128, .T. ) ;
#198 = APPROVAL_DATE_TIME ( #219, #135 ) ;
#199 = ORIENTED_EDGE ( 'NONE', *, *, #162, .T. ) ;
#200 = AXIS2_PLACEMENT_3D ( 'NONE', #38, #109, #155 ) ;
#201 = VERTEX_POINT ( 'NONE', #226 ) ;
#202 = CC_DESIGN_APPROVAL ( #2, ( #48 ) ) ;
#203 = DIRECTION ( 'NONE',  ( 1.000000000000000000, 0.000000000000000000, 0.000000000000000000 ) ) ;
#204 = DIRECTION ( 'NONE',  ( 0.000000000000000000, 0.000000000000000000, 1.000000000000000000 ) ) ;
#205 = CIRCLE ( 'NONE', #193, 4.099999999999999645 ) ;
#206 = DIRECTION ( 'NONE',  ( 1.000000000000000000, 0.000000000000000000, 0.000000000000000000 ) ) ;
#207 = CC_DESIGN_APPROVAL ( #280, ( #90 ) ) ;
#208 = AXIS2_PLACEMENT_3D ( 'NONE', #4, #98, #203 ) ;
#209 = CARTESIAN_POINT ( 'NONE',  ( 0.000000000000000000, 0.000000000000000000, 5.199999999999982414 ) ) ;
#210 = CC_DESIGN_PERSON_AND_ORGANIZATION_ASSIGNMENT ( #195, #55, ( #90 ) ) ;
#211 = EDGE_CURVE ( 'NONE', #171, #75, #215, .T. ) ;
#212 = CARTESIAN_POINT ( 'NONE',  ( -4.099999999999999645, 0.000000000000000000, 5.199999999999982414 ) ) ;
#213 = DIRECTION ( 'NONE',  ( 0.000000000000000000, 0.000000000000000000, 1.000000000000000000 ) ) ;
#214 = ORIENTED_EDGE ( 'NONE', *, *, #89, .F. ) ;
#215 = CIRCLE ( 'NONE', #303, 7.000000000000000000 ) ;
#216 =( LENGTH_UNIT ( ) NAMED_UNIT ( * ) SI_UNIT ( .MILLI., .METRE. ) );
#217 = APPROVAL_PERSON_ORGANIZATION ( #144, #135, #43 ) ;
#218 = ORIENTED_EDGE ( 'NONE', *, *, #82, .T. ) ;
#219 = DATE_AND_TIME ( #67, #44 ) ;
#220 = ORIENTED_EDGE ( 'NONE', *, *, #5, .F. ) ;
#221 = DIRECTION ( 'NONE',  ( 0.000000000000000000, 0.000000000000000000, 1.000000000000000000 ) ) ;
#222 = DATE_TIME_ROLE ( 'classification_date' ) ;
#223 = EDGE_CURVE ( 'NONE', #188, #263, #251, .T. ) ;
#224 = AXIS2_PLACEMENT_3D ( 'NONE', #272, #14, #7 ) ;
#225 = DIRECTION ( 'NONE',  ( 1.000000000000000000, 0.000000000000000000, -0.000000000000000000 ) ) ;
#226 = CARTESIAN_POINT ( 'NONE',  ( -7.000000000000000000, 0.000000000000000000, 0.000000000000000000 ) ) ;
#227 = CARTESIAN_POINT ( 'NONE',  ( 4.099999999999999645, 5.021051876504147385E-16, 635.0000000000000000 ) ) ;
#228 = DIRECTION ( 'NONE',  ( 1.224646799147353207E-16, 1.000000000000000000, -0.000000000000000000 ) ) ;
#229 = CYLINDRICAL_SURFACE ( 'NONE', #108, 7.000000000000000000 ) ;
#230 = VERTEX_POINT ( 'NONE', #227 ) ;
#231 = DIRECTION ( 'NONE',  ( 0.000000000000000000, 0.000000000000000000, 1.000000000000000000 ) ) ;
#232 = MANIFOLD_SOLID_BREP ( 'Zaoblit1', #131 ) ;
#233 = DATE_TIME_ROLE ( 'creation_date' ) ;
#234 = APPROVAL_PERSON_ORGANIZATION ( #287, #280, #72 ) ;
#235 = FACE_OUTER_BOUND ( 'NONE', #290, .T. ) ;
#236 = DESIGN_CONTEXT ( 'detailed design', #184, 'design' ) ;
#237 = ORIENTED_EDGE ( 'NONE', *, *, #5, .T. ) ;
#238 = CARTESIAN_POINT ( 'NONE',  ( 0.000000000000000000, 0.000000000000000000, 635.0000000000000000 ) ) ;
#239 = CIRCLE ( 'NONE', #132, 7.000000000000000000 ) ;
#240 = ORIENTED_EDGE ( 'NONE', *, *, #139, .F. ) ;
#241 = CC_DESIGN_PERSON_AND_ORGANIZATION_ASSIGNMENT ( #285, #70, ( #156 ) ) ;
#242 = ORIENTED_EDGE ( 'NONE', *, *, #101, .T. ) ;
#243 = SHAPE_DEFINITION_REPRESENTATION ( #21, #40 ) ;
#244 = AXIS2_PLACEMENT_3D ( 'NONE', #247, #228, #124 ) ;
#245 = DIRECTION ( 'NONE',  ( 1.000000000000000000, 0.000000000000000000, 0.000000000000000000 ) ) ;
#246 = APPROVAL_DATE_TIME ( #177, #2 ) ;
#247 = CARTESIAN_POINT ( 'NONE',  ( -4.299999999999998934, 5.265981236333617484E-16, 5.199999999999982414 ) ) ;
#248 = CC_DESIGN_PERSON_AND_ORGANIZATION_ASSIGNMENT ( #111, #304, ( #49 ) ) ;
#249 = DIRECTION ( 'NONE',  ( -0.000000000000000000, -0.000000000000000000, -1.000000000000000000 ) ) ;
#250 = APPROVAL_ROLE ( '' ) ;
#251 = CIRCLE ( 'NONE', #58, 4.299999999999998934 ) ;
#252 = LOCAL_TIME ( 11, 46, 26.00000000000000000, #80 ) ;
#253 = CARTESIAN_POINT ( 'NONE',  ( 0.000000000000000000, 0.000000000000000000, 5.000000000000000000 ) ) ;
#254 = ORIENTED_EDGE ( 'NONE', *, *, #223, .T. ) ;
#255 = CIRCLE ( 'NONE', #265, 4.299999999999998934 ) ;
#256 = DIRECTION ( 'NONE',  ( 0.000000000000000000, 0.000000000000000000, 1.000000000000000000 ) ) ;
#257 = ORIENTED_EDGE ( 'NONE', *, *, #46, .F. ) ;
#258 = EDGE_LOOP ( 'NONE', ( #254, #286 ) ) ;
#259 = ADVANCED_FACE ( 'NONE', ( #83 ), #229, .T. ) ;
#260 = AXIS2_PLACEMENT_3D ( 'NONE', #100, #186, #158 ) ;
#261 = CC_DESIGN_APPROVAL ( #135, ( #156 ) ) ;
#262 = CIRCLE ( 'NONE', #300, 4.099999999999999645 ) ;
#263 = VERTEX_POINT ( 'NONE', #12 ) ;
#264 = CYLINDRICAL_SURFACE ( 'NONE', #157, 4.099999999999999645 ) ;
#265 = AXIS2_PLACEMENT_3D ( 'NONE', #278, #181, #56 ) ;
#266 = COORDINATED_UNIVERSAL_TIME_OFFSET ( 1, 0, .AHEAD. ) ;
#267 = DIRECTION ( 'NONE',  ( 0.000000000000000000, 0.000000000000000000, 1.000000000000000000 ) ) ;
#268 = CARTESIAN_POINT ( 'NONE',  ( 0.000000000000000000, 0.000000000000000000, 635.0000000000000000 ) ) ;
#269 = PLANE ( 'NONE',  #64 ) ;
#270 = CALENDAR_DATE ( 2022, 20, 6 ) ;
#271 = DIRECTION ( 'NONE',  ( 0.000000000000000000, 0.000000000000000000, 1.000000000000000000 ) ) ;
#272 = CARTESIAN_POINT ( 'NONE',  ( 4.299999999999998934, 0.000000000000000000, 5.199999999999982414 ) ) ;
#273 = EDGE_CURVE ( 'NONE', #73, #230, #103, .T. ) ;
#274 = APPLICATION_CONTEXT ( 'configuration controlled 3d designs of mechanical parts and assemblies' ) ;
#275 = DIRECTION ( 'NONE',  ( -0.000000000000000000, -0.000000000000000000, -1.000000000000000000 ) ) ;
#276 = CYLINDRICAL_SURFACE ( 'NONE', #37, 7.000000000000000000 ) ;
#277 = LOCAL_TIME ( 11, 46, 26.00000000000000000, #138 ) ;
#278 = CARTESIAN_POINT ( 'NONE',  ( 0.000000000000000000, 0.000000000000000000, 5.000000000000000000 ) ) ;
#279 = ORIENTED_EDGE ( 'NONE', *, *, #82, .F. ) ;
#280 = APPROVAL ( #18, 'NEURÈENÝ' ) ;
#281 = APPROVAL_STATUS ( 'not_yet_approved' ) ;
#282 = ADVANCED_FACE ( 'NONE', ( #63 ), #54, .F. ) ;
#283 = AXIS2_PLACEMENT_3D ( 'NONE', #106, #213, #299 ) ;
#284 = DIRECTION ( 'NONE',  ( 1.000000000000000000, 0.000000000000000000, -0.000000000000000000 ) ) ;
#285 = PERSON_AND_ORGANIZATION ( #296, #17 ) ;
#286 = ORIENTED_EDGE ( 'NONE', *, *, #139, .T. ) ;
#287 = PERSON_AND_ORGANIZATION ( #296, #17 ) ;
#288 = ORIENTED_EDGE ( 'NONE', *, *, #89, .T. ) ;
#289 =( GEOMETRIC_REPRESENTATION_CONTEXT ( 3 ) GLOBAL_UNCERTAINTY_ASSIGNED_CONTEXT ( ( #166 ) ) GLOBAL_UNIT_ASSIGNED_CONTEXT ( ( #216, #19, #189 ) ) REPRESENTATION_CONTEXT ( 'NONE', 'WORKASPACE' ) );
#290 = EDGE_LOOP ( 'NONE', ( #199, #27 ) ) ;
#291 = VECTOR ( 'NONE', #196, 1000.000000000000000 ) ;
#292 = FACE_OUTER_BOUND ( 'NONE', #159, .T. ) ;
#293 = PERSON_AND_ORGANIZATION_ROLE ( 'design_supplier' ) ;
#294 = CARTESIAN_POINT ( 'NONE',  ( -7.000000000000000000, 0.000000000000000000, 5.000000000000000000 ) ) ;
#295 = DIRECTION ( 'NONE',  ( -0.000000000000000000, -0.000000000000000000, -1.000000000000000000 ) ) ;
#296 = PERSON ( 'NEURÈENÝ', 'NEURÈENÝ', 'NEURÈENÝ', ('NEURÈENÝ'), ('NEURÈENÝ'), ('NEURÈENÝ') ) ;
#297 = FACE_OUTER_BOUND ( 'NONE', #190, .T. ) ;
#298 = ADVANCED_FACE ( 'NONE', ( #41, #235 ), #93, .T. ) ;
#299 = DIRECTION ( 'NONE',  ( 1.000000000000000000, 0.000000000000000000, 0.000000000000000000 ) ) ;
#300 = AXIS2_PLACEMENT_3D ( 'NONE', #268, #267, #173 ) ;
#301 = CALENDAR_DATE ( 2022, 20, 6 ) ;
#302 = MECHANICAL_CONTEXT ( 'NONE', #274, 'mechanical' ) ;
#303 = AXIS2_PLACEMENT_3D ( 'NONE', #57, #256, #160 ) ;
#304 = PERSON_AND_ORGANIZATION_ROLE ( 'design_owner' ) ;
#305 = ORIENTED_EDGE ( 'NONE', *, *, #211, .F. ) ;
#306 = AXIS2_PLACEMENT_3D ( 'NONE', #145, #25, #45 ) ;
#307 = DIRECTION ( 'NONE',  ( 0.000000000000000000, 0.000000000000000000, 1.000000000000000000 ) ) ;
ENDSEC;
END-ISO-10303-21;
