ISO-10303-21;
HEADER;
FILE_DESCRIPTION (( 'STEP AP203' ),
    '1' );
FILE_NAME ('6556.STEP',
    '2022-06-20T09:54:02',
    ( '' ),
    ( '' ),
    'SwSTEP 2.0',
    'SolidWorks 2019',
    '' );
FILE_SCHEMA (( 'CONFIG_CONTROL_DESIGN' ));
ENDSEC;

DATA;
#1 = CC_DESIGN_PERSON_AND_ORGANIZATION_ASSIGNMENT ( #189, #296, ( #190 ) ) ;
#2 = FACE_OUTER_BOUND ( 'NONE', #44, .T. ) ;
#3 = LINE ( 'NONE', #240, #169 ) ;
#4 = DIRECTION ( 'NONE',  ( 0.000000000000000000, 0.000000000000000000, 1.000000000000000000 ) ) ;
#5 = DIRECTION ( 'NONE',  ( 0.000000000000000000, 0.000000000000000000, 1.000000000000000000 ) ) ;
#6 = FACE_OUTER_BOUND ( 'NONE', #143, .T. ) ;
#7 =( GEOMETRIC_REPRESENTATION_CONTEXT ( 3 ) GLOBAL_UNCERTAINTY_ASSIGNED_CONTEXT ( ( #243 ) ) GLOBAL_UNIT_ASSIGNED_CONTEXT ( ( #292, #132, #228 ) ) REPRESENTATION_CONTEXT ( 'NONE', 'WORKASPACE' ) );
#8 = CARTESIAN_POINT ( 'NONE',  ( 0.000000000000000000, 0.000000000000000000, 5.000000000000000000 ) ) ;
#9 = CIRCLE ( 'NONE', #223, 3.250000000000000444 ) ;
#10 = CYLINDRICAL_SURFACE ( 'NONE', #246, 6.000000000000000888 ) ;
#11 = ADVANCED_FACE ( 'NONE', ( #220 ), #102, .T. ) ;
#12 = CARTESIAN_POINT ( 'NONE',  ( 0.000000000000000000, 0.000000000000000000, 5.199999999999982414 ) ) ;
#13 = LOCAL_TIME ( 11, 54, 2.000000000000000000, #303 ) ;
#14 = DIRECTION ( 'NONE',  ( 0.000000000000000000, 0.000000000000000000, 1.000000000000000000 ) ) ;
#15 = ADVANCED_FACE ( 'NONE', ( #2 ), #29, .T. ) ;
#16 = CARTESIAN_POINT ( 'NONE',  ( 6.000000000000000888, 7.347880794884120722E-16, 0.000000000000000000 ) ) ;
#17 = COORDINATED_UNIVERSAL_TIME_OFFSET ( 1, 0, .AHEAD. ) ;
#18 = AXIS2_PLACEMENT_3D ( 'NONE', #269, #60, #251 ) ;
#19 = APPROVAL_ROLE ( '' ) ;
#20 = AXIS2_PLACEMENT_3D ( 'NONE', #52, #198, #173 ) ;
#21 = ADVANCED_FACE ( 'NONE', ( #264 ), #192, .F. ) ;
#22 = DATE_TIME_ROLE ( 'classification_date' ) ;
#23 = VERTEX_POINT ( 'NONE', #241 ) ;
#24 = APPLICATION_PROTOCOL_DEFINITION ( 'international standard', 'config_control_design', 1994, #278 ) ;
#25 = AXIS2_PLACEMENT_3D ( 'NONE', #31, #55, #222 ) ;
#26 = ORIENTED_EDGE ( 'NONE', *, *, #73, .T. ) ;
#27 = DIRECTION ( 'NONE',  ( -0.000000000000000000, -0.000000000000000000, -1.000000000000000000 ) ) ;
#28 = DIRECTION ( 'NONE',  ( -0.000000000000000000, -0.000000000000000000, -1.000000000000000000 ) ) ;
#29 = CYLINDRICAL_SURFACE ( 'NONE', #117, 6.000000000000000888 ) ;
#30 = DIRECTION ( 'NONE',  ( -1.000000000000000000, 1.224646799147350742E-16, 0.000000000000000000 ) ) ;
#31 = CARTESIAN_POINT ( 'NONE',  ( 0.000000000000000000, 0.000000000000000000, 5.000000000000000000 ) ) ;
#32 = ORGANIZATION ( 'NEURÈENÝ', 'NEURÈENÝ', '' ) ;
#33 = DIRECTION ( 'NONE',  ( -0.000000000000000000, -0.000000000000000000, -1.000000000000000000 ) ) ;
#34 = DIRECTION ( 'NONE',  ( -0.000000000000000000, -0.000000000000000000, -1.000000000000000000 ) ) ;
#35 = DIRECTION ( 'NONE',  ( -0.000000000000000000, -0.000000000000000000, -1.000000000000000000 ) ) ;
#36 = ADVANCED_FACE ( 'NONE', ( #6 ), #47, .T. ) ;
#37 = DIRECTION ( 'NONE',  ( -1.000000000000000000, 0.000000000000000000, 0.000000000000000000 ) ) ;
#38 = AXIS2_PLACEMENT_3D ( 'NONE', #96, #4, #195 ) ;
#39 = CALENDAR_DATE ( 2022, 20, 6 ) ;
#40 = ORIENTED_EDGE ( 'NONE', *, *, #200, .T. ) ;
#41 = CIRCLE ( 'NONE', #25, 6.000000000000000888 ) ;
#42 = DATE_AND_TIME ( #232, #13 ) ;
#43 = MECHANICAL_CONTEXT ( 'NONE', #260, 'mechanical' ) ;
#44 = EDGE_LOOP ( 'NONE', ( #281, #162, #112, #284 ) ) ;
#45 = ORIENTED_EDGE ( 'NONE', *, *, #262, .T. ) ;
#46 = LOCAL_TIME ( 11, 54, 2.000000000000000000, #111 ) ;
#47 = CYLINDRICAL_SURFACE ( 'NONE', #237, 3.250000000000000444 ) ;
#48 = DIRECTION ( 'NONE',  ( 1.224646799147353207E-16, 1.000000000000000000, -0.000000000000000000 ) ) ;
#49 = ADVANCED_BREP_SHAPE_REPRESENTATION ( '6556', ( #216, #265 ), #7 ) ;
#50 = CARTESIAN_POINT ( 'NONE',  ( 0.000000000000000000, 0.000000000000000000, 505.0000000000000000 ) ) ;
#51 = DIRECTION ( 'NONE',  ( -0.000000000000000000, -0.000000000000000000, -1.000000000000000000 ) ) ;
#52 = CARTESIAN_POINT ( 'NONE',  ( 0.000000000000000000, 0.000000000000000000, 5.000000000000000000 ) ) ;
#53 = EDGE_CURVE ( 'NONE', #307, #72, #56, .T. ) ;
#54 = CARTESIAN_POINT ( 'NONE',  ( 3.450000000000000178, 0.000000000000000000, 4.999999999999991118 ) ) ;
#55 = DIRECTION ( 'NONE',  ( 0.000000000000000000, 0.000000000000000000, 1.000000000000000000 ) ) ;
#56 = CIRCLE ( 'NONE', #287, 0.2000000000000000944 ) ;
#57 = DIRECTION ( 'NONE',  ( 1.000000000000000000, 0.000000000000000000, 0.000000000000000000 ) ) ;
#58 = EDGE_CURVE ( 'NONE', #136, #72, #212, .T. ) ;
#59 = VECTOR ( 'NONE', #34, 1000.000000000000000 ) ;
#60 = DIRECTION ( 'NONE',  ( 0.000000000000000000, 0.000000000000000000, 1.000000000000000000 ) ) ;
#61 = DATE_TIME_ROLE ( 'creation_date' ) ;
#62 = ORIENTED_EDGE ( 'NONE', *, *, #153, .F. ) ;
#63 = CC_DESIGN_APPROVAL ( #163, ( #274 ) ) ;
#64 = ORIENTED_EDGE ( 'NONE', *, *, #110, .F. ) ;
#65 = APPROVAL_ROLE ( '' ) ;
#66 = CLOSED_SHELL ( 'NONE', ( #106, #36, #275, #15, #78, #21, #11, #129, #168 ) ) ;
#67 = EDGE_CURVE ( 'NONE', #307, #235, #9, .T. ) ;
#68 = ORIENTED_EDGE ( 'NONE', *, *, #122, .F. ) ;
#69 = ORIENTED_EDGE ( 'NONE', *, *, #282, .T. ) ;
#70 = CARTESIAN_POINT ( 'NONE',  ( -3.450000000000000178, 4.225031457058368824E-16, 5.199999999999982414 ) ) ;
#71 = APPROVAL_PERSON_ORGANIZATION ( #283, #163, #65 ) ;
#72 = VERTEX_POINT ( 'NONE', #172 ) ;
#73 = EDGE_CURVE ( 'NONE', #235, #307, #194, .T. ) ;
#74 = PLANE ( 'NONE',  #245 ) ;
#75 = PRODUCT_DEFINITION_SHAPE ( 'NONE', 'NONE',  #270 ) ;
#76 = ORIENTED_EDGE ( 'NONE', *, *, #179, .T. ) ;
#77 = PLANE ( 'NONE',  #99 ) ;
#78 = ADVANCED_FACE ( 'NONE', ( #123, #291 ), #77, .T. ) ;
#79 = VECTOR ( 'NONE', #51, 1000.000000000000000 ) ;
#80 = DIRECTION ( 'NONE',  ( 0.000000000000000000, 0.000000000000000000, 1.000000000000000000 ) ) ;
#81 = FACE_OUTER_BOUND ( 'NONE', #121, .T. ) ;
#82 = CIRCLE ( 'NONE', #256, 6.000000000000000888 ) ;
#83 = LOCAL_TIME ( 11, 54, 2.000000000000000000, #300 ) ;
#84 = AXIS2_PLACEMENT_3D ( 'NONE', #238, #263, #176 ) ;
#85 = APPROVAL ( #209, 'NEURÈENÝ' ) ;
#86 = CARTESIAN_POINT ( 'NONE',  ( 0.000000000000000000, 0.000000000000000000, 505.0000000000000000 ) ) ;
#87 = AXIS2_PLACEMENT_3D ( 'NONE', #86, #80, #128 ) ;
#88 = PERSON_AND_ORGANIZATION_ROLE ( 'design_supplier' ) ;
#89 = DIRECTION ( 'NONE',  ( 0.000000000000000000, 0.000000000000000000, 1.000000000000000000 ) ) ;
#90 = VERTEX_POINT ( 'NONE', #100 ) ;
#91 = ORIENTED_EDGE ( 'NONE', *, *, #187, .T. ) ;
#92 = VECTOR ( 'NONE', #35, 1000.000000000000000 ) ;
#93 = PERSON_AND_ORGANIZATION_ROLE ( 'creator' ) ;
#94 = APPROVAL_DATE_TIME ( #161, #133 ) ;
#95 = ORIENTED_EDGE ( 'NONE', *, *, #262, .F. ) ;
#96 = CARTESIAN_POINT ( 'NONE',  ( 0.000000000000000000, 0.000000000000000000, 5.199999999999982414 ) ) ;
#97 = ORIENTED_EDGE ( 'NONE', *, *, #53, .F. ) ;
#98 = CARTESIAN_POINT ( 'NONE',  ( 0.000000000000000000, 0.000000000000000000, 5.000000000000000000 ) ) ;
#99 = AXIS2_PLACEMENT_3D ( 'NONE', #217, #146, #177 ) ;
#100 = CARTESIAN_POINT ( 'NONE',  ( -6.000000000000000888, 0.000000000000000000, 0.000000000000000000 ) ) ;
#101 = CC_DESIGN_DATE_AND_TIME_ASSIGNMENT ( #279, #22, ( #274 ) ) ;
#102 = CYLINDRICAL_SURFACE ( 'NONE', #84, 3.250000000000000444 ) ;
#103 = CARTESIAN_POINT ( 'NONE',  ( 6.000000000000000888, 7.347880794884120722E-16, 5.000000000000000000 ) ) ;
#104 = CARTESIAN_POINT ( 'NONE',  ( 0.000000000000000000, 0.000000000000000000, 0.000000000000000000 ) ) ;
#105 = DIRECTION ( 'NONE',  ( 1.000000000000000000, 0.000000000000000000, 0.000000000000000000 ) ) ;
#106 = ADVANCED_FACE ( 'NONE', ( #197 ), #181, .F. ) ;
#107 = CC_DESIGN_APPROVAL ( #133, ( #252 ) ) ;
#108 = DIRECTION ( 'NONE',  ( 1.000000000000000000, 0.000000000000000000, 0.000000000000000000 ) ) ;
#109 = DIRECTION ( 'NONE',  ( 0.000000000000000000, 0.000000000000000000, 1.000000000000000000 ) ) ;
#110 = EDGE_CURVE ( 'NONE', #205, #235, #261, .T. ) ;
#111 = COORDINATED_UNIVERSAL_TIME_OFFSET ( 1, 0, .AHEAD. ) ;
#112 = ORIENTED_EDGE ( 'NONE', *, *, #144, .T. ) ;
#113 = AXIS2_PLACEMENT_3D ( 'NONE', #12, #151, #127 ) ;
#114 = DATE_AND_TIME ( #254, #226 ) ;
#115 = ORIENTED_EDGE ( 'NONE', *, *, #282, .F. ) ;
#116 = DESIGN_CONTEXT ( 'detailed design', #278, 'design' ) ;
#117 = AXIS2_PLACEMENT_3D ( 'NONE', #98, #27, #213 ) ;
#118 = EDGE_LOOP ( 'NONE', ( #45, #258 ) ) ;
#119 = ORIENTED_EDGE ( 'NONE', *, *, #153, .T. ) ;
#120 = AXIS2_PLACEMENT_3D ( 'NONE', #155, #244, #272 ) ;
#121 = EDGE_LOOP ( 'NONE', ( #97, #210, #160, #115 ) ) ;
#122 = EDGE_CURVE ( 'NONE', #23, #307, #3, .T. ) ;
#123 = FACE_BOUND ( 'NONE', #257, .T. ) ;
#124 = DIRECTION ( 'NONE',  ( 1.000000000000000000, 0.000000000000000000, 0.000000000000000000 ) ) ;
#125 = DIRECTION ( 'NONE',  ( 1.000000000000000000, 0.000000000000000000, 0.000000000000000000 ) ) ;
#126 = EDGE_LOOP ( 'NONE', ( #165, #145, #301, #277 ) ) ;
#127 = DIRECTION ( 'NONE',  ( 1.000000000000000000, 0.000000000000000000, 0.000000000000000000 ) ) ;
#128 = DIRECTION ( 'NONE',  ( 1.000000000000000000, 0.000000000000000000, 0.000000000000000000 ) ) ;
#129 = ADVANCED_FACE ( 'NONE', ( #288 ), #74, .T. ) ;
#130 = DIRECTION ( 'NONE',  ( 0.000000000000000000, 0.000000000000000000, 1.000000000000000000 ) ) ;
#131 = CC_DESIGN_APPROVAL ( #85, ( #270 ) ) ;
#132 =( NAMED_UNIT ( * ) PLANE_ANGLE_UNIT ( ) SI_UNIT ( $, .RADIAN. ) );
#133 = APPROVAL ( #166, 'NEURÈENÝ' ) ;
#134 = SECURITY_CLASSIFICATION_LEVEL ( 'unclassified' ) ;
#135 = CARTESIAN_POINT ( 'NONE',  ( 0.000000000000000000, 0.000000000000000000, 0.000000000000000000 ) ) ;
#136 = VERTEX_POINT ( 'NONE', #54 ) ;
#137 = CIRCLE ( 'NONE', #120, 0.1999999999999996503 ) ;
#138 = APPROVAL_DATE_TIME ( #42, #163 ) ;
#139 = EDGE_LOOP ( 'NONE', ( #150, #62 ) ) ;
#140 = CALENDAR_DATE ( 2022, 20, 6 ) ;
#141 = ORIENTED_EDGE ( 'NONE', *, *, #67, .T. ) ;
#142 = AXIS2_PLACEMENT_3D ( 'NONE', #203, #130, #105 ) ;
#143 = EDGE_LOOP ( 'NONE', ( #167, #236, #26, #68 ) ) ;
#144 = EDGE_CURVE ( 'NONE', #188, #90, #225, .T. ) ;
#145 = ORIENTED_EDGE ( 'NONE', *, *, #53, .T. ) ;
#146 = DIRECTION ( 'NONE',  ( 0.000000000000000000, 0.000000000000000000, 1.000000000000000000 ) ) ;
#147 = EDGE_LOOP ( 'NONE', ( #76, #91 ) ) ;
#148 = AXIS2_PLACEMENT_3D ( 'NONE', #149, #242, #285 ) ;
#149 = CARTESIAN_POINT ( 'NONE',  ( 0.000000000000000000, 0.000000000000000000, 0.000000000000000000 ) ) ;
#150 = ORIENTED_EDGE ( 'NONE', *, *, #221, .F. ) ;
#151 = DIRECTION ( 'NONE',  ( 0.000000000000000000, 0.000000000000000000, 1.000000000000000000 ) ) ;
#152 = CIRCLE ( 'NONE', #142, 3.250000000000000444 ) ;
#153 = EDGE_CURVE ( 'NONE', #231, #90, #304, .T. ) ;
#154 = CARTESIAN_POINT ( 'NONE',  ( -3.250000000000000444, 0.000000000000000000, 5.199999999999982414 ) ) ;
#155 = CARTESIAN_POINT ( 'NONE',  ( 3.450000000000000178, 0.000000000000000000, 5.199999999999982414 ) ) ;
#156 = EDGE_CURVE ( 'NONE', #235, #136, #137, .T. ) ;
#157 = TOROIDAL_SURFACE ( 'NONE', #113, 3.450000000000000178, 0.2000000000000000111 ) ;
#158 = SHAPE_DEFINITION_REPRESENTATION ( #75, #49 ) ;
#159 = DATE_AND_TIME ( #164, #206 ) ;
#160 = ORIENTED_EDGE ( 'NONE', *, *, #156, .T. ) ;
#161 = DATE_AND_TIME ( #140, #46 ) ;
#162 = ORIENTED_EDGE ( 'NONE', *, *, #179, .F. ) ;
#163 = APPROVAL ( #255, 'NEURÈENÝ' ) ;
#164 = CALENDAR_DATE ( 2022, 20, 6 ) ;
#165 = ORIENTED_EDGE ( 'NONE', *, *, #67, .F. ) ;
#166 = APPROVAL_STATUS ( 'not_yet_approved' ) ;
#167 = ORIENTED_EDGE ( 'NONE', *, *, #239, .F. ) ;
#168 = ADVANCED_FACE ( 'NONE', ( #81 ), #157, .F. ) ;
#169 = VECTOR ( 'NONE', #219, 1000.000000000000000 ) ;
#170 = CIRCLE ( 'NONE', #294, 3.450000000000000178 ) ;
#171 = DIRECTION ( 'NONE',  ( 0.000000000000000000, 0.000000000000000000, 1.000000000000000000 ) ) ;
#172 = CARTESIAN_POINT ( 'NONE',  ( -3.450000000000000178, 4.225031457058368824E-16, 4.999999999999991118 ) ) ;
#173 = DIRECTION ( 'NONE',  ( 1.000000000000000000, 0.000000000000000000, 0.000000000000000000 ) ) ;
#174 = AXIS2_PLACEMENT_3D ( 'NONE', #104, #271, #57 ) ;
#175 = CC_DESIGN_PERSON_AND_ORGANIZATION_ASSIGNMENT ( #186, #88, ( #252 ) ) ;
#176 = DIRECTION ( 'NONE',  ( -1.000000000000000000, 0.000000000000000000, 0.000000000000000000 ) ) ;
#177 = DIRECTION ( 'NONE',  ( 1.000000000000000000, 0.000000000000000000, -0.000000000000000000 ) ) ;
#178 = FACE_OUTER_BOUND ( 'NONE', #280, .T. ) ;
#179 = EDGE_CURVE ( 'NONE', #188, #259, #41, .T. ) ;
#180 = DIRECTION ( 'NONE',  ( 1.000000000000000000, 0.000000000000000000, 0.000000000000000000 ) ) ;
#181 = TOROIDAL_SURFACE ( 'NONE', #38, 3.450000000000000178, 0.2000000000000000111 ) ;
#182 = CARTESIAN_POINT ( 'NONE',  ( 0.000000000000000000, 0.000000000000000000, 5.000000000000000000 ) ) ;
#183 = CIRCLE ( 'NONE', #87, 3.250000000000000444 ) ;
#184 = PERSON_AND_ORGANIZATION ( #276, #32 ) ;
#185 = ORIENTED_EDGE ( 'NONE', *, *, #122, .T. ) ;
#186 = PERSON_AND_ORGANIZATION ( #276, #32 ) ;
#187 = EDGE_CURVE ( 'NONE', #259, #188, #82, .T. ) ;
#188 = VERTEX_POINT ( 'NONE', #201 ) ;
#189 = PERSON_AND_ORGANIZATION ( #276, #32 ) ;
#190 = PRODUCT ( '6556', '6556', '', ( #43 ) ) ;
#191 = PERSON_AND_ORGANIZATION_ROLE ( 'classification_officer' ) ;
#192 = PLANE ( 'NONE',  #148 ) ;
#193 = ORIENTED_EDGE ( 'NONE', *, *, #187, .F. ) ;
#194 = CIRCLE ( 'NONE', #233, 3.250000000000000444 ) ;
#195 = DIRECTION ( 'NONE',  ( 1.000000000000000000, 0.000000000000000000, 0.000000000000000000 ) ) ;
#196 = CC_DESIGN_DATE_AND_TIME_ASSIGNMENT ( #114, #61, ( #270 ) ) ;
#197 = FACE_OUTER_BOUND ( 'NONE', #126, .T. ) ;
#198 = DIRECTION ( 'NONE',  ( -0.000000000000000000, -0.000000000000000000, -1.000000000000000000 ) ) ;
#199 = DIRECTION ( 'NONE',  ( -0.000000000000000000, -0.000000000000000000, -1.000000000000000000 ) ) ;
#200 = EDGE_CURVE ( 'NONE', #259, #231, #247, .T. ) ;
#201 = CARTESIAN_POINT ( 'NONE',  ( -6.000000000000000888, 0.000000000000000000, 5.000000000000000000 ) ) ;
#202 = APPROVAL_PERSON_ORGANIZATION ( #229, #85, #253 ) ;
#203 = CARTESIAN_POINT ( 'NONE',  ( 0.000000000000000000, 0.000000000000000000, 505.0000000000000000 ) ) ;
#204 = PERSON_AND_ORGANIZATION ( #276, #32 ) ;
#205 = VERTEX_POINT ( 'NONE', #295 ) ;
#206 = LOCAL_TIME ( 11, 54, 2.000000000000000000, #207 ) ;
#207 = COORDINATED_UNIVERSAL_TIME_OFFSET ( 1, 0, .AHEAD. ) ;
#208 = ORIENTED_EDGE ( 'NONE', *, *, #144, .F. ) ;
#209 = APPROVAL_STATUS ( 'not_yet_approved' ) ;
#210 = ORIENTED_EDGE ( 'NONE', *, *, #73, .F. ) ;
#211 = DIRECTION ( 'NONE',  ( 1.000000000000000000, 0.000000000000000000, 0.000000000000000000 ) ) ;
#212 = CIRCLE ( 'NONE', #20, 3.450000000000000178 ) ;
#213 = DIRECTION ( 'NONE',  ( -1.000000000000000000, 0.000000000000000000, 0.000000000000000000 ) ) ;
#214 = CARTESIAN_POINT ( 'NONE',  ( 3.250000000000000444, 3.980102097228898231E-16, 505.0000000000000000 ) ) ;
#215 = APPROVAL_PERSON_ORGANIZATION ( #298, #133, #19 ) ;
#216 = MANIFOLD_SOLID_BREP ( 'Zaoblit1', #66 ) ;
#217 = CARTESIAN_POINT ( 'NONE',  ( 0.000000000000000000, 0.000000000000000000, 5.000000000000000000 ) ) ;
#218 = CC_DESIGN_PERSON_AND_ORGANIZATION_ASSIGNMENT ( #184, #191, ( #274 ) ) ;
#219 = DIRECTION ( 'NONE',  ( -0.000000000000000000, -0.000000000000000000, -1.000000000000000000 ) ) ;
#220 = FACE_OUTER_BOUND ( 'NONE', #299, .T. ) ;
#221 = EDGE_CURVE ( 'NONE', #90, #231, #297, .T. ) ;
#222 = DIRECTION ( 'NONE',  ( 1.000000000000000000, 0.000000000000000000, 0.000000000000000000 ) ) ;
#223 = AXIS2_PLACEMENT_3D ( 'NONE', #267, #5, #125 ) ;
#224 = APPLICATION_PROTOCOL_DEFINITION ( 'international standard', 'config_control_design', 1994, #260 ) ;
#225 = LINE ( 'NONE', #248, #92 ) ;
#226 = LOCAL_TIME ( 11, 54, 2.000000000000000000, #17 ) ;
#227 = CC_DESIGN_PERSON_AND_ORGANIZATION_ASSIGNMENT ( #204, #230, ( #252 ) ) ;
#228 =( NAMED_UNIT ( * ) SI_UNIT ( $, .STERADIAN. ) SOLID_ANGLE_UNIT ( ) );
#229 = PERSON_AND_ORGANIZATION ( #276, #32 ) ;
#230 = PERSON_AND_ORGANIZATION_ROLE ( 'creator' ) ;
#231 = VERTEX_POINT ( 'NONE', #16 ) ;
#232 = CALENDAR_DATE ( 2022, 20, 6 ) ;
#233 = AXIS2_PLACEMENT_3D ( 'NONE', #266, #171, #124 ) ;
#234 = APPROVAL_DATE_TIME ( #159, #85 ) ;
#235 = VERTEX_POINT ( 'NONE', #249 ) ;
#236 = ORIENTED_EDGE ( 'NONE', *, *, #110, .T. ) ;
#237 = AXIS2_PLACEMENT_3D ( 'NONE', #289, #28, #286 ) ;
#238 = CARTESIAN_POINT ( 'NONE',  ( 0.000000000000000000, 0.000000000000000000, 505.0000000000000000 ) ) ;
#239 = EDGE_CURVE ( 'NONE', #205, #23, #152, .T. ) ;
#240 = CARTESIAN_POINT ( 'NONE',  ( -3.250000000000000444, 0.000000000000000000, 505.0000000000000000 ) ) ;
#241 = CARTESIAN_POINT ( 'NONE',  ( -3.250000000000000444, 0.000000000000000000, 505.0000000000000000 ) ) ;
#242 = DIRECTION ( 'NONE',  ( 0.000000000000000000, 0.000000000000000000, 1.000000000000000000 ) ) ;
#243 = UNCERTAINTY_MEASURE_WITH_UNIT (LENGTH_MEASURE( 1.000000000000000082E-05 ), #292, 'distance_accuracy_value', 'NONE');
#244 = DIRECTION ( 'NONE',  ( 0.000000000000000000, -1.000000000000000000, 0.000000000000000000 ) ) ;
#245 = AXIS2_PLACEMENT_3D ( 'NONE', #50, #14, #273 ) ;
#246 = AXIS2_PLACEMENT_3D ( 'NONE', #182, #33, #37 ) ;
#247 = LINE ( 'NONE', #103, #59 ) ;
#248 = CARTESIAN_POINT ( 'NONE',  ( -6.000000000000000888, 0.000000000000000000, 5.000000000000000000 ) ) ;
#249 = CARTESIAN_POINT ( 'NONE',  ( 3.250000000000000444, 3.980102097228898231E-16, 5.199999999999982414 ) ) ;
#250 = CC_DESIGN_PERSON_AND_ORGANIZATION_ASSIGNMENT ( #306, #93, ( #270 ) ) ;
#251 = DIRECTION ( 'NONE',  ( 1.000000000000000000, 0.000000000000000000, 0.000000000000000000 ) ) ;
#252 = PRODUCT_DEFINITION_FORMATION_WITH_SPECIFIED_SOURCE ( 'LIBOVOLNÝ', '', #190, .NOT_KNOWN. ) ;
#253 = APPROVAL_ROLE ( '' ) ;
#254 = CALENDAR_DATE ( 2022, 20, 6 ) ;
#255 = APPROVAL_STATUS ( 'not_yet_approved' ) ;
#256 = AXIS2_PLACEMENT_3D ( 'NONE', #268, #109, #108 ) ;
#257 = EDGE_LOOP ( 'NONE', ( #305, #69 ) ) ;
#258 = ORIENTED_EDGE ( 'NONE', *, *, #239, .T. ) ;
#259 = VERTEX_POINT ( 'NONE', #293 ) ;
#260 = APPLICATION_CONTEXT ( 'configuration controlled 3d designs of mechanical parts and assemblies' ) ;
#261 = LINE ( 'NONE', #214, #79 ) ;
#262 = EDGE_CURVE ( 'NONE', #23, #205, #183, .T. ) ;
#263 = DIRECTION ( 'NONE',  ( -0.000000000000000000, -0.000000000000000000, -1.000000000000000000 ) ) ;
#264 = FACE_OUTER_BOUND ( 'NONE', #139, .T. ) ;
#265 = AXIS2_PLACEMENT_3D ( 'NONE', #135, #89, #211 ) ;
#266 = CARTESIAN_POINT ( 'NONE',  ( 0.000000000000000000, 0.000000000000000000, 5.199999999999982414 ) ) ;
#267 = CARTESIAN_POINT ( 'NONE',  ( 0.000000000000000000, 0.000000000000000000, 5.199999999999982414 ) ) ;
#268 = CARTESIAN_POINT ( 'NONE',  ( 0.000000000000000000, 0.000000000000000000, 5.000000000000000000 ) ) ;
#269 = CARTESIAN_POINT ( 'NONE',  ( 0.000000000000000000, 0.000000000000000000, 0.000000000000000000 ) ) ;
#270 = PRODUCT_DEFINITION ( 'NEZNÁMÝ', '', #252, #116 ) ;
#271 = DIRECTION ( 'NONE',  ( 0.000000000000000000, 0.000000000000000000, 1.000000000000000000 ) ) ;
#272 = DIRECTION ( 'NONE',  ( 0.000000000000000000, 0.000000000000000000, -1.000000000000000000 ) ) ;
#273 = DIRECTION ( 'NONE',  ( 1.000000000000000000, 0.000000000000000000, -0.000000000000000000 ) ) ;
#274 = SECURITY_CLASSIFICATION ( '', '', #134 ) ;
#275 = ADVANCED_FACE ( 'NONE', ( #178 ), #10, .T. ) ;
#276 = PERSON ( 'NEURÈENÝ', 'NEURÈENÝ', 'NEURÈENÝ', ('NEURÈENÝ'), ('NEURÈENÝ'), ('NEURÈENÝ') ) ;
#277 = ORIENTED_EDGE ( 'NONE', *, *, #156, .F. ) ;
#278 = APPLICATION_CONTEXT ( 'configuration controlled 3d designs of mechanical parts and assemblies' ) ;
#279 = DATE_AND_TIME ( #39, #83 ) ;
#280 = EDGE_LOOP ( 'NONE', ( #193, #40, #119, #208 ) ) ;
#281 = ORIENTED_EDGE ( 'NONE', *, *, #200, .F. ) ;
#282 = EDGE_CURVE ( 'NONE', #72, #136, #170, .T. ) ;
#283 = PERSON_AND_ORGANIZATION ( #276, #32 ) ;
#284 = ORIENTED_EDGE ( 'NONE', *, *, #221, .T. ) ;
#285 = DIRECTION ( 'NONE',  ( 1.000000000000000000, 0.000000000000000000, -0.000000000000000000 ) ) ;
#286 = DIRECTION ( 'NONE',  ( -1.000000000000000000, 0.000000000000000000, 0.000000000000000000 ) ) ;
#287 = AXIS2_PLACEMENT_3D ( 'NONE', #70, #48, #30 ) ;
#288 = FACE_OUTER_BOUND ( 'NONE', #118, .T. ) ;
#289 = CARTESIAN_POINT ( 'NONE',  ( 0.000000000000000000, 0.000000000000000000, 505.0000000000000000 ) ) ;
#290 = CC_DESIGN_SECURITY_CLASSIFICATION ( #274, ( #252 ) ) ;
#291 = FACE_OUTER_BOUND ( 'NONE', #147, .T. ) ;
#292 =( LENGTH_UNIT ( ) NAMED_UNIT ( * ) SI_UNIT ( .MILLI., .METRE. ) );
#293 = CARTESIAN_POINT ( 'NONE',  ( 6.000000000000000888, 7.347880794884120722E-16, 5.000000000000000000 ) ) ;
#294 = AXIS2_PLACEMENT_3D ( 'NONE', #8, #199, #180 ) ;
#295 = CARTESIAN_POINT ( 'NONE',  ( 3.250000000000000444, 3.980102097228898231E-16, 505.0000000000000000 ) ) ;
#296 = PERSON_AND_ORGANIZATION_ROLE ( 'design_owner' ) ;
#297 = CIRCLE ( 'NONE', #18, 6.000000000000000888 ) ;
#298 = PERSON_AND_ORGANIZATION ( #276, #32 ) ;
#299 = EDGE_LOOP ( 'NONE', ( #64, #95, #185, #141 ) ) ;
#300 = COORDINATED_UNIVERSAL_TIME_OFFSET ( 1, 0, .AHEAD. ) ;
#301 = ORIENTED_EDGE ( 'NONE', *, *, #58, .F. ) ;
#302 = PRODUCT_RELATED_PRODUCT_CATEGORY ( 'detail', '', ( #190 ) ) ;
#303 = COORDINATED_UNIVERSAL_TIME_OFFSET ( 1, 0, .AHEAD. ) ;
#304 = CIRCLE ( 'NONE', #174, 6.000000000000000888 ) ;
#305 = ORIENTED_EDGE ( 'NONE', *, *, #58, .T. ) ;
#306 = PERSON_AND_ORGANIZATION ( #276, #32 ) ;
#307 = VERTEX_POINT ( 'NONE', #154 ) ;
ENDSEC;
END-ISO-10303-21;
