ISO-10303-21;
HEADER;
FILE_DESCRIPTION (( 'STEP AP203' ),
    '1' );
FILE_NAME ('cd1a.STEP',
    '2022-06-20T09:18:09',
    ( '' ),
    ( '' ),
    'SwSTEP 2.0',
    'SolidWorks 2019',
    '' );
FILE_SCHEMA (( 'CONFIG_CONTROL_DESIGN' ));
ENDSEC;

DATA;
#1 = PLANE ( 'NONE',  #52 ) ;
#2 =( GEOMETRIC_REPRESENTATION_CONTEXT ( 3 ) GLOBAL_UNCERTAINTY_ASSIGNED_CONTEXT ( ( #73 ) ) GLOBAL_UNIT_ASSIGNED_CONTEXT ( ( #182, #165, #211 ) ) REPRESENTATION_CONTEXT ( 'NONE', 'WORKASPACE' ) );
#3 = DIRECTION ( 'NONE',  ( -0.000000000000000000, -0.000000000000000000, -1.000000000000000000 ) ) ;
#4 = ADVANCED_BREP_SHAPE_REPRESENTATION ( 'cd1a', ( #87, #30 ), #2 ) ;
#5 = APPROVAL ( #302, 'NEURÈENÝ' ) ;
#6 = PERSON_AND_ORGANIZATION ( #80, #38 ) ;
#7 = DIRECTION ( 'NONE',  ( 1.000000000000000000, 0.000000000000000000, 0.000000000000000000 ) ) ;
#8 = CYLINDRICAL_SURFACE ( 'NONE', #143, 16.00000000000000000 ) ;
#9 = DIRECTION ( 'NONE',  ( -0.000000000000000000, -0.000000000000000000, -1.000000000000000000 ) ) ;
#10 = DIRECTION ( 'NONE',  ( -1.000000000000000000, 1.224646799147353207E-16, 0.000000000000000000 ) ) ;
#11 = CALENDAR_DATE ( 2022, 20, 6 ) ;
#12 = DIRECTION ( 'NONE',  ( -0.000000000000000000, -0.000000000000000000, -1.000000000000000000 ) ) ;
#13 = EDGE_CURVE ( 'NONE', #96, #47, #15, .T. ) ;
#14 = CYLINDRICAL_SURFACE ( 'NONE', #289, 12.50000000000000000 ) ;
#15 = CIRCLE ( 'NONE', #144, 16.00000000000000000 ) ;
#16 = CARTESIAN_POINT ( 'NONE',  ( 16.00000000000000000, 1.959434878635765131E-15, 10.00000000000000000 ) ) ;
#17 = ADVANCED_FACE ( 'NONE', ( #181, #158 ), #174, .T. ) ;
#18 = DIRECTION ( 'NONE',  ( 0.000000000000000000, 0.000000000000000000, 1.000000000000000000 ) ) ;
#19 = ORIENTED_EDGE ( 'NONE', *, *, #104, .T. ) ;
#20 = DATE_TIME_ROLE ( 'classification_date' ) ;
#21 = CIRCLE ( 'NONE', #119, 16.00000000000000000 ) ;
#22 = CIRCLE ( 'NONE', #136, 12.70000000000000107 ) ;
#23 = ADVANCED_FACE ( 'NONE', ( #203 ), #81, .F. ) ;
#24 = ORIENTED_EDGE ( 'NONE', *, *, #124, .F. ) ;
#25 = ADVANCED_FACE ( 'NONE', ( #177 ), #8, .T. ) ;
#26 = DIRECTION ( 'NONE',  ( 1.000000000000000000, 0.000000000000000000, 0.000000000000000000 ) ) ;
#27 = CARTESIAN_POINT ( 'NONE',  ( 0.000000000000000000, 0.000000000000000000, 10.19999999999998685 ) ) ;
#28 = COORDINATED_UNIVERSAL_TIME_OFFSET ( 1, 0, .AHEAD. ) ;
#29 = DIRECTION ( 'NONE',  ( 1.000000000000000000, 0.000000000000000000, 0.000000000000000000 ) ) ;
#30 = AXIS2_PLACEMENT_3D ( 'NONE', #267, #226, #161 ) ;
#31 = CARTESIAN_POINT ( 'NONE',  ( 0.000000000000000000, 0.000000000000000000, 10.19999999999998685 ) ) ;
#32 = APPROVAL ( #242, 'NEURÈENÝ' ) ;
#33 = APPLICATION_PROTOCOL_DEFINITION ( 'international standard', 'config_control_design', 1994, #251 ) ;
#34 = DIRECTION ( 'NONE',  ( 1.000000000000000000, 0.000000000000000000, 0.000000000000000000 ) ) ;
#35 = PERSON_AND_ORGANIZATION ( #80, #38 ) ;
#36 = CC_DESIGN_APPROVAL ( #32, ( #145 ) ) ;
#37 = PERSON_AND_ORGANIZATION ( #80, #38 ) ;
#38 = ORGANIZATION ( 'NEURÈENÝ', 'NEURÈENÝ', '' ) ;
#39 = CARTESIAN_POINT ( 'NONE',  ( 12.70000000000000107, 0.000000000000000000, 10.19999999999998685 ) ) ;
#40 = CIRCLE ( 'NONE', #151, 16.00000000000000000 ) ;
#41 = CARTESIAN_POINT ( 'NONE',  ( 12.50000000000000000, 1.530808498934191521E-15, 10.19999999999998685 ) ) ;
#42 = COORDINATED_UNIVERSAL_TIME_OFFSET ( 1, 0, .AHEAD. ) ;
#43 = EDGE_LOOP ( 'NONE', ( #117, #169 ) ) ;
#44 = CARTESIAN_POINT ( 'NONE',  ( -12.70000000000000107, 1.555301434917138630E-15, 10.19999999999998685 ) ) ;
#45 = EDGE_LOOP ( 'NONE', ( #178, #254 ) ) ;
#46 = EDGE_CURVE ( 'NONE', #47, #96, #148, .T. ) ;
#47 = VERTEX_POINT ( 'NONE', #205 ) ;
#48 = ORIENTED_EDGE ( 'NONE', *, *, #175, .F. ) ;
#49 = CC_DESIGN_PERSON_AND_ORGANIZATION_ASSIGNMENT ( #128, #208, ( #130 ) ) ;
#50 = LOCAL_TIME ( 11, 18, 9.000000000000000000, #263 ) ;
#51 = CARTESIAN_POINT ( 'NONE',  ( -16.00000000000000000, 0.000000000000000000, 10.00000000000000000 ) ) ;
#52 = AXIS2_PLACEMENT_3D ( 'NONE', #103, #82, #138 ) ;
#53 = DIRECTION ( 'NONE',  ( 0.000000000000000000, 0.000000000000000000, 1.000000000000000000 ) ) ;
#54 = PRODUCT_DEFINITION_SHAPE ( 'NONE', 'NONE',  #145 ) ;
#55 = DIRECTION ( 'NONE',  ( 1.000000000000000000, 0.000000000000000000, 0.000000000000000000 ) ) ;
#56 = APPROVAL_DATE_TIME ( #291, #118 ) ;
#57 = DIRECTION ( 'NONE',  ( -0.000000000000000000, -0.000000000000000000, -1.000000000000000000 ) ) ;
#58 = TOROIDAL_SURFACE ( 'NONE', #126, 12.70000000000000107, 0.2000000000000000111 ) ;
#59 = DESIGN_CONTEXT ( 'detailed design', #229, 'design' ) ;
#60 = DIRECTION ( 'NONE',  ( 1.224646799147353207E-16, 1.000000000000000000, -0.000000000000000000 ) ) ;
#61 = DIRECTION ( 'NONE',  ( 0.000000000000000000, 0.000000000000000000, 1.000000000000000000 ) ) ;
#62 = DIRECTION ( 'NONE',  ( 1.000000000000000000, 0.000000000000000000, 0.000000000000000000 ) ) ;
#63 = FACE_OUTER_BOUND ( 'NONE', #150, .T. ) ;
#64 = EDGE_CURVE ( 'NONE', #216, #195, #269, .T. ) ;
#65 = CLOSED_SHELL ( 'NONE', ( #305, #166, #25, #197, #17, #23, #248, #172, #131 ) ) ;
#66 = CC_DESIGN_APPROVAL ( #118, ( #300 ) ) ;
#67 = AXIS2_PLACEMENT_3D ( 'NONE', #39, #142, #230 ) ;
#68 = DIRECTION ( 'NONE',  ( -1.000000000000000000, 0.000000000000000000, 0.000000000000000000 ) ) ;
#69 = DIRECTION ( 'NONE',  ( 1.000000000000000000, 0.000000000000000000, 0.000000000000000000 ) ) ;
#70 = PERSON_AND_ORGANIZATION ( #80, #38 ) ;
#71 = APPROVAL_DATE_TIME ( #167, #5 ) ;
#72 = EDGE_LOOP ( 'NONE', ( #149, #231, #173, #99 ) ) ;
#73 = UNCERTAINTY_MEASURE_WITH_UNIT (LENGTH_MEASURE( 1.000000000000000082E-05 ), #182, 'distance_accuracy_value', 'NONE');
#74 = ORIENTED_EDGE ( 'NONE', *, *, #277, .F. ) ;
#75 = AXIS2_PLACEMENT_3D ( 'NONE', #237, #307, #106 ) ;
#76 = LOCAL_TIME ( 11, 18, 9.000000000000000000, #280 ) ;
#77 = EDGE_LOOP ( 'NONE', ( #256, #48, #213, #79 ) ) ;
#78 = ORIENTED_EDGE ( 'NONE', *, *, #46, .F. ) ;
#79 = ORIENTED_EDGE ( 'NONE', *, *, #83, .T. ) ;
#80 = PERSON ( 'NEURÈENÝ', 'NEURÈENÝ', 'NEURÈENÝ', ('NEURÈENÝ'), ('NEURÈENÝ'), ('NEURÈENÝ') ) ;
#81 = PLANE ( 'NONE',  #107 ) ;
#82 = DIRECTION ( 'NONE',  ( 0.000000000000000000, 0.000000000000000000, 1.000000000000000000 ) ) ;
#83 = EDGE_CURVE ( 'NONE', #281, #215, #186, .T. ) ;
#84 = LINE ( 'NONE', #51, #190 ) ;
#85 = ORIENTED_EDGE ( 'NONE', *, *, #104, .F. ) ;
#86 = PERSON_AND_ORGANIZATION ( #80, #38 ) ;
#87 = MANIFOLD_SOLID_BREP ( 'Zaoblit1', #65 ) ;
#88 = CARTESIAN_POINT ( 'NONE',  ( 0.000000000000000000, 0.000000000000000000, 10.19999999999998685 ) ) ;
#89 = APPROVAL_ROLE ( '' ) ;
#90 = LINE ( 'NONE', #16, #135 ) ;
#91 = CYLINDRICAL_SURFACE ( 'NONE', #296, 16.00000000000000000 ) ;
#92 = EDGE_CURVE ( 'NONE', #285, #192, #304, .T. ) ;
#93 = LOCAL_TIME ( 11, 18, 9.000000000000000000, #132 ) ;
#94 = CC_DESIGN_PERSON_AND_ORGANIZATION_ASSIGNMENT ( #70, #249, ( #284 ) ) ;
#95 = SHAPE_DEFINITION_REPRESENTATION ( #54, #4 ) ;
#96 = VERTEX_POINT ( 'NONE', #198 ) ;
#97 = EDGE_LOOP ( 'NONE', ( #196, #294, #252, #121 ) ) ;
#98 = APPROVAL_PERSON_ORGANIZATION ( #113, #5, #141 ) ;
#99 = ORIENTED_EDGE ( 'NONE', *, *, #261, .F. ) ;
#100 = DIRECTION ( 'NONE',  ( 0.000000000000000000, 0.000000000000000000, 1.000000000000000000 ) ) ;
#101 = AXIS2_PLACEMENT_3D ( 'NONE', #243, #61, #34 ) ;
#102 = AXIS2_PLACEMENT_3D ( 'NONE', #123, #290, #218 ) ;
#103 = CARTESIAN_POINT ( 'NONE',  ( 0.000000000000000000, 0.000000000000000000, 260.0000000000000000 ) ) ;
#104 = EDGE_CURVE ( 'NONE', #235, #287, #40, .T. ) ;
#105 = CARTESIAN_POINT ( 'NONE',  ( 0.000000000000000000, 0.000000000000000000, 10.19999999999998685 ) ) ;
#106 = DIRECTION ( 'NONE',  ( 1.000000000000000000, 0.000000000000000000, -0.000000000000000000 ) ) ;
#107 = AXIS2_PLACEMENT_3D ( 'NONE', #225, #265, #201 ) ;
#108 = APPLICATION_PROTOCOL_DEFINITION ( 'international standard', 'config_control_design', 1994, #229 ) ;
#109 = CARTESIAN_POINT ( 'NONE',  ( 0.000000000000000000, 0.000000000000000000, 10.00000000000000000 ) ) ;
#110 = EDGE_CURVE ( 'NONE', #285, #215, #222, .T. ) ;
#111 = DATE_AND_TIME ( #11, #93 ) ;
#112 = CARTESIAN_POINT ( 'NONE',  ( 16.00000000000000000, 1.959434878635765131E-15, 10.00000000000000000 ) ) ;
#113 = PERSON_AND_ORGANIZATION ( #80, #38 ) ;
#114 = AXIS2_PLACEMENT_3D ( 'NONE', #156, #100, #7 ) ;
#115 = LOCAL_TIME ( 11, 18, 9.000000000000000000, #42 ) ;
#116 = CARTESIAN_POINT ( 'NONE',  ( 0.000000000000000000, 0.000000000000000000, 260.0000000000000000 ) ) ;
#117 = ORIENTED_EDGE ( 'NONE', *, *, #64, .T. ) ;
#118 = APPROVAL ( #295, 'NEURÈENÝ' ) ;
#119 = AXIS2_PLACEMENT_3D ( 'NONE', #250, #212, #160 ) ;
#120 = ORIENTED_EDGE ( 'NONE', *, *, #13, .T. ) ;
#121 = ORIENTED_EDGE ( 'NONE', *, *, #185, .F. ) ;
#122 = CYLINDRICAL_SURFACE ( 'NONE', #102, 12.50000000000000000 ) ;
#123 = CARTESIAN_POINT ( 'NONE',  ( 0.000000000000000000, 0.000000000000000000, 260.0000000000000000 ) ) ;
#124 = EDGE_CURVE ( 'NONE', #235, #47, #84, .T. ) ;
#125 = CALENDAR_DATE ( 2022, 20, 6 ) ;
#126 = AXIS2_PLACEMENT_3D ( 'NONE', #105, #236, #179 ) ;
#127 = DIRECTION ( 'NONE',  ( 1.000000000000000000, 0.000000000000000000, 0.000000000000000000 ) ) ;
#128 = PERSON_AND_ORGANIZATION ( #80, #38 ) ;
#129 = CARTESIAN_POINT ( 'NONE',  ( 0.000000000000000000, 0.000000000000000000, 0.000000000000000000 ) ) ;
#130 = PRODUCT ( 'cd1a', 'cd1a', '', ( #204 ) ) ;
#131 = ADVANCED_FACE ( 'NONE', ( #153 ), #58, .F. ) ;
#132 = COORDINATED_UNIVERSAL_TIME_OFFSET ( 1, 0, .AHEAD. ) ;
#133 = DIRECTION ( 'NONE',  ( 1.000000000000000000, 0.000000000000000000, 0.000000000000000000 ) ) ;
#134 = CARTESIAN_POINT ( 'NONE',  ( -12.50000000000000000, 0.000000000000000000, 260.0000000000000000 ) ) ;
#135 = VECTOR ( 'NONE', #12, 1000.000000000000000 ) ;
#136 = AXIS2_PLACEMENT_3D ( 'NONE', #188, #184, #62 ) ;
#137 = APPROVAL_DATE_TIME ( #200, #32 ) ;
#138 = DIRECTION ( 'NONE',  ( 1.000000000000000000, 0.000000000000000000, -0.000000000000000000 ) ) ;
#139 = FACE_OUTER_BOUND ( 'NONE', #77, .T. ) ;
#140 = EDGE_CURVE ( 'NONE', #215, #281, #258, .T. ) ;
#141 = APPROVAL_ROLE ( '' ) ;
#142 = DIRECTION ( 'NONE',  ( 0.000000000000000000, -1.000000000000000000, 0.000000000000000000 ) ) ;
#143 = AXIS2_PLACEMENT_3D ( 'NONE', #155, #57, #293 ) ;
#144 = AXIS2_PLACEMENT_3D ( 'NONE', #129, #262, #29 ) ;
#145 = PRODUCT_DEFINITION ( 'NEZNÁMÝ', '', #300, #59 ) ;
#146 = ORIENTED_EDGE ( 'NONE', *, *, #286, .T. ) ;
#147 = EDGE_LOOP ( 'NONE', ( #19, #238 ) ) ;
#148 = CIRCLE ( 'NONE', #101, 16.00000000000000000 ) ;
#149 = ORIENTED_EDGE ( 'NONE', *, *, #92, .F. ) ;
#150 = EDGE_LOOP ( 'NONE', ( #193, #146, #303, #74 ) ) ;
#151 = AXIS2_PLACEMENT_3D ( 'NONE', #219, #53, #127 ) ;
#152 = TOROIDAL_SURFACE ( 'NONE', #271, 12.70000000000000107, 0.2000000000000000111 ) ;
#153 = FACE_OUTER_BOUND ( 'NONE', #97, .T. ) ;
#154 = PRODUCT_RELATED_PRODUCT_CATEGORY ( 'detail', '', ( #130 ) ) ;
#155 = CARTESIAN_POINT ( 'NONE',  ( 0.000000000000000000, 0.000000000000000000, 10.00000000000000000 ) ) ;
#156 = CARTESIAN_POINT ( 'NONE',  ( 0.000000000000000000, 0.000000000000000000, 260.0000000000000000 ) ) ;
#157 = AXIS2_PLACEMENT_3D ( 'NONE', #109, #241, #133 ) ;
#158 = FACE_OUTER_BOUND ( 'NONE', #147, .T. ) ;
#159 = PERSON_AND_ORGANIZATION_ROLE ( 'creator' ) ;
#160 = DIRECTION ( 'NONE',  ( 1.000000000000000000, 0.000000000000000000, 0.000000000000000000 ) ) ;
#161 = DIRECTION ( 'NONE',  ( 1.000000000000000000, 0.000000000000000000, 0.000000000000000000 ) ) ;
#162 = DIRECTION ( 'NONE',  ( 1.000000000000000000, 0.000000000000000000, 0.000000000000000000 ) ) ;
#163 = VECTOR ( 'NONE', #164, 1000.000000000000000 ) ;
#164 = DIRECTION ( 'NONE',  ( -0.000000000000000000, -0.000000000000000000, -1.000000000000000000 ) ) ;
#165 =( NAMED_UNIT ( * ) PLANE_ANGLE_UNIT ( ) SI_UNIT ( $, .RADIAN. ) );
#166 = ADVANCED_FACE ( 'NONE', ( #288 ), #122, .T. ) ;
#167 = DATE_AND_TIME ( #278, #115 ) ;
#168 = CARTESIAN_POINT ( 'NONE',  ( -12.50000000000000000, 0.000000000000000000, 10.19999999999998685 ) ) ;
#169 = ORIENTED_EDGE ( 'NONE', *, *, #185, .T. ) ;
#170 = ORIENTED_EDGE ( 'NONE', *, *, #13, .F. ) ;
#171 = EDGE_LOOP ( 'NONE', ( #217, #85, #279, #233 ) ) ;
#172 = ADVANCED_FACE ( 'NONE', ( #260 ), #1, .T. ) ;
#173 = ORIENTED_EDGE ( 'NONE', *, *, #140, .T. ) ;
#174 = PLANE ( 'NONE',  #75 ) ;
#175 = EDGE_CURVE ( 'NONE', #192, #285, #228, .T. ) ;
#176 = LOCAL_TIME ( 11, 18, 9.000000000000000000, #28 ) ;
#177 = FACE_OUTER_BOUND ( 'NONE', #283, .T. ) ;
#178 = ORIENTED_EDGE ( 'NONE', *, *, #175, .T. ) ;
#179 = DIRECTION ( 'NONE',  ( 1.000000000000000000, 0.000000000000000000, 0.000000000000000000 ) ) ;
#180 = CC_DESIGN_APPROVAL ( #5, ( #284 ) ) ;
#181 = FACE_BOUND ( 'NONE', #43, .T. ) ;
#182 =( LENGTH_UNIT ( ) NAMED_UNIT ( * ) SI_UNIT ( .MILLI., .METRE. ) );
#183 = APPROVAL_ROLE ( '' ) ;
#184 = DIRECTION ( 'NONE',  ( -0.000000000000000000, -0.000000000000000000, -1.000000000000000000 ) ) ;
#185 = EDGE_CURVE ( 'NONE', #195, #216, #22, .T. ) ;
#186 = CIRCLE ( 'NONE', #239, 12.50000000000000000 ) ;
#187 = LINE ( 'NONE', #273, #163 ) ;
#188 = CARTESIAN_POINT ( 'NONE',  ( 0.000000000000000000, 0.000000000000000000, 10.00000000000000000 ) ) ;
#189 = CC_DESIGN_DATE_AND_TIME_ASSIGNMENT ( #232, #20, ( #284 ) ) ;
#190 = VECTOR ( 'NONE', #199, 1000.000000000000000 ) ;
#191 = AXIS2_PLACEMENT_3D ( 'NONE', #31, #264, #26 ) ;
#192 = VERTEX_POINT ( 'NONE', #134 ) ;
#193 = ORIENTED_EDGE ( 'NONE', *, *, #83, .F. ) ;
#194 = EDGE_CURVE ( 'NONE', #287, #235, #21, .T. ) ;
#195 = VERTEX_POINT ( 'NONE', #210 ) ;
#196 = ORIENTED_EDGE ( 'NONE', *, *, #286, .F. ) ;
#197 = ADVANCED_FACE ( 'NONE', ( #275 ), #91, .T. ) ;
#198 = CARTESIAN_POINT ( 'NONE',  ( 16.00000000000000000, 1.959434878635765131E-15, 0.000000000000000000 ) ) ;
#199 = DIRECTION ( 'NONE',  ( -0.000000000000000000, -0.000000000000000000, -1.000000000000000000 ) ) ;
#200 = DATE_AND_TIME ( #125, #50 ) ;
#201 = DIRECTION ( 'NONE',  ( 1.000000000000000000, 0.000000000000000000, -0.000000000000000000 ) ) ;
#202 = PERSON_AND_ORGANIZATION ( #80, #38 ) ;
#203 = FACE_OUTER_BOUND ( 'NONE', #306, .T. ) ;
#204 = MECHANICAL_CONTEXT ( 'NONE', #251, 'mechanical' ) ;
#205 = CARTESIAN_POINT ( 'NONE',  ( -16.00000000000000000, 0.000000000000000000, 0.000000000000000000 ) ) ;
#206 = PERSON_AND_ORGANIZATION_ROLE ( 'creator' ) ;
#207 = CC_DESIGN_DATE_AND_TIME_ASSIGNMENT ( #111, #224, ( #145 ) ) ;
#208 = PERSON_AND_ORGANIZATION_ROLE ( 'design_owner' ) ;
#209 = DIRECTION ( 'NONE',  ( -0.000000000000000000, -0.000000000000000000, -1.000000000000000000 ) ) ;
#210 = CARTESIAN_POINT ( 'NONE',  ( -12.70000000000000107, 1.555301434917138630E-15, 9.999999999999992895 ) ) ;
#211 =( NAMED_UNIT ( * ) SI_UNIT ( $, .STERADIAN. ) SOLID_ANGLE_UNIT ( ) );
#212 = DIRECTION ( 'NONE',  ( 0.000000000000000000, 0.000000000000000000, 1.000000000000000000 ) ) ;
#213 = ORIENTED_EDGE ( 'NONE', *, *, #261, .T. ) ;
#214 = APPROVAL_PERSON_ORGANIZATION ( #86, #118, #183 ) ;
#215 = VERTEX_POINT ( 'NONE', #41 ) ;
#216 = VERTEX_POINT ( 'NONE', #297 ) ;
#217 = ORIENTED_EDGE ( 'NONE', *, *, #223, .F. ) ;
#218 = DIRECTION ( 'NONE',  ( -1.000000000000000000, 0.000000000000000000, 0.000000000000000000 ) ) ;
#219 = CARTESIAN_POINT ( 'NONE',  ( 0.000000000000000000, 0.000000000000000000, 10.00000000000000000 ) ) ;
#220 = AXIS2_PLACEMENT_3D ( 'NONE', #116, #18, #162 ) ;
#221 = SECURITY_CLASSIFICATION_LEVEL ( 'unclassified' ) ;
#222 = LINE ( 'NONE', #257, #282 ) ;
#223 = EDGE_CURVE ( 'NONE', #287, #96, #90, .T. ) ;
#224 = DATE_TIME_ROLE ( 'creation_date' ) ;
#225 = CARTESIAN_POINT ( 'NONE',  ( 0.000000000000000000, 0.000000000000000000, 0.000000000000000000 ) ) ;
#226 = DIRECTION ( 'NONE',  ( 0.000000000000000000, 0.000000000000000000, 1.000000000000000000 ) ) ;
#227 = DIRECTION ( 'NONE',  ( 0.000000000000000000, 0.000000000000000000, 1.000000000000000000 ) ) ;
#228 = CIRCLE ( 'NONE', #220, 12.50000000000000000 ) ;
#229 = APPLICATION_CONTEXT ( 'configuration controlled 3d designs of mechanical parts and assemblies' ) ;
#230 = DIRECTION ( 'NONE',  ( 0.000000000000000000, 0.000000000000000000, -1.000000000000000000 ) ) ;
#231 = ORIENTED_EDGE ( 'NONE', *, *, #110, .T. ) ;
#232 = DATE_AND_TIME ( #299, #76 ) ;
#233 = ORIENTED_EDGE ( 'NONE', *, *, #46, .T. ) ;
#234 = APPROVAL_PERSON_ORGANIZATION ( #202, #32, #89 ) ;
#235 = VERTEX_POINT ( 'NONE', #245 ) ;
#236 = DIRECTION ( 'NONE',  ( 0.000000000000000000, 0.000000000000000000, 1.000000000000000000 ) ) ;
#237 = CARTESIAN_POINT ( 'NONE',  ( 0.000000000000000000, 0.000000000000000000, 10.00000000000000000 ) ) ;
#238 = ORIENTED_EDGE ( 'NONE', *, *, #194, .T. ) ;
#239 = AXIS2_PLACEMENT_3D ( 'NONE', #27, #227, #55 ) ;
#240 = CC_DESIGN_SECURITY_CLASSIFICATION ( #284, ( #300 ) ) ;
#241 = DIRECTION ( 'NONE',  ( -0.000000000000000000, -0.000000000000000000, -1.000000000000000000 ) ) ;
#242 = APPROVAL_STATUS ( 'not_yet_approved' ) ;
#243 = CARTESIAN_POINT ( 'NONE',  ( 0.000000000000000000, 0.000000000000000000, 0.000000000000000000 ) ) ;
#244 = CC_DESIGN_PERSON_AND_ORGANIZATION_ASSIGNMENT ( #35, #272, ( #300 ) ) ;
#245 = CARTESIAN_POINT ( 'NONE',  ( -16.00000000000000000, 0.000000000000000000, 10.00000000000000000 ) ) ;
#246 = CARTESIAN_POINT ( 'NONE',  ( 0.000000000000000000, 0.000000000000000000, 260.0000000000000000 ) ) ;
#247 = CARTESIAN_POINT ( 'NONE',  ( 0.000000000000000000, 0.000000000000000000, 10.00000000000000000 ) ) ;
#248 = ADVANCED_FACE ( 'NONE', ( #139 ), #14, .T. ) ;
#249 = PERSON_AND_ORGANIZATION_ROLE ( 'classification_officer' ) ;
#250 = CARTESIAN_POINT ( 'NONE',  ( 0.000000000000000000, 0.000000000000000000, 10.00000000000000000 ) ) ;
#251 = APPLICATION_CONTEXT ( 'configuration controlled 3d designs of mechanical parts and assemblies' ) ;
#252 = ORIENTED_EDGE ( 'NONE', *, *, #277, .T. ) ;
#253 = CARTESIAN_POINT ( 'NONE',  ( 12.50000000000000000, 1.530808498934191521E-15, 260.0000000000000000 ) ) ;
#254 = ORIENTED_EDGE ( 'NONE', *, *, #92, .T. ) ;
#255 = ORIENTED_EDGE ( 'NONE', *, *, #194, .F. ) ;
#256 = ORIENTED_EDGE ( 'NONE', *, *, #110, .F. ) ;
#257 = CARTESIAN_POINT ( 'NONE',  ( 12.50000000000000000, 1.530808498934191521E-15, 260.0000000000000000 ) ) ;
#258 = CIRCLE ( 'NONE', #191, 12.50000000000000000 ) ;
#259 = AXIS2_PLACEMENT_3D ( 'NONE', #44, #60, #10 ) ;
#260 = FACE_OUTER_BOUND ( 'NONE', #45, .T. ) ;
#261 = EDGE_CURVE ( 'NONE', #192, #281, #187, .T. ) ;
#262 = DIRECTION ( 'NONE',  ( 0.000000000000000000, 0.000000000000000000, 1.000000000000000000 ) ) ;
#263 = COORDINATED_UNIVERSAL_TIME_OFFSET ( 1, 0, .AHEAD. ) ;
#264 = DIRECTION ( 'NONE',  ( 0.000000000000000000, 0.000000000000000000, 1.000000000000000000 ) ) ;
#265 = DIRECTION ( 'NONE',  ( 0.000000000000000000, 0.000000000000000000, 1.000000000000000000 ) ) ;
#266 = CALENDAR_DATE ( 2022, 20, 6 ) ;
#267 = CARTESIAN_POINT ( 'NONE',  ( 0.000000000000000000, 0.000000000000000000, 0.000000000000000000 ) ) ;
#268 = DIRECTION ( 'NONE',  ( -1.000000000000000000, 0.000000000000000000, 0.000000000000000000 ) ) ;
#269 = CIRCLE ( 'NONE', #157, 12.70000000000000107 ) ;
#270 = DIRECTION ( 'NONE',  ( 0.000000000000000000, 0.000000000000000000, 1.000000000000000000 ) ) ;
#271 = AXIS2_PLACEMENT_3D ( 'NONE', #88, #270, #69 ) ;
#272 = PERSON_AND_ORGANIZATION_ROLE ( 'design_supplier' ) ;
#273 = CARTESIAN_POINT ( 'NONE',  ( -12.50000000000000000, 0.000000000000000000, 260.0000000000000000 ) ) ;
#274 = CC_DESIGN_PERSON_AND_ORGANIZATION_ASSIGNMENT ( #37, #206, ( #145 ) ) ;
#275 = FACE_OUTER_BOUND ( 'NONE', #171, .T. ) ;
#276 = CIRCLE ( 'NONE', #67, 0.2000000000000005107 ) ;
#277 = EDGE_CURVE ( 'NONE', #215, #216, #276, .T. ) ;
#278 = CALENDAR_DATE ( 2022, 20, 6 ) ;
#279 = ORIENTED_EDGE ( 'NONE', *, *, #124, .T. ) ;
#280 = COORDINATED_UNIVERSAL_TIME_OFFSET ( 1, 0, .AHEAD. ) ;
#281 = VERTEX_POINT ( 'NONE', #168 ) ;
#282 = VECTOR ( 'NONE', #3, 1000.000000000000000 ) ;
#283 = EDGE_LOOP ( 'NONE', ( #255, #292, #120, #24 ) ) ;
#284 = SECURITY_CLASSIFICATION ( '', '', #221 ) ;
#285 = VERTEX_POINT ( 'NONE', #253 ) ;
#286 = EDGE_CURVE ( 'NONE', #281, #195, #301, .T. ) ;
#287 = VERTEX_POINT ( 'NONE', #112 ) ;
#288 = FACE_OUTER_BOUND ( 'NONE', #72, .T. ) ;
#289 = AXIS2_PLACEMENT_3D ( 'NONE', #246, #209, #68 ) ;
#290 = DIRECTION ( 'NONE',  ( -0.000000000000000000, -0.000000000000000000, -1.000000000000000000 ) ) ;
#291 = DATE_AND_TIME ( #266, #176 ) ;
#292 = ORIENTED_EDGE ( 'NONE', *, *, #223, .T. ) ;
#293 = DIRECTION ( 'NONE',  ( -1.000000000000000000, 0.000000000000000000, 0.000000000000000000 ) ) ;
#294 = ORIENTED_EDGE ( 'NONE', *, *, #140, .F. ) ;
#295 = APPROVAL_STATUS ( 'not_yet_approved' ) ;
#296 = AXIS2_PLACEMENT_3D ( 'NONE', #247, #9, #268 ) ;
#297 = CARTESIAN_POINT ( 'NONE',  ( 12.70000000000000107, 0.000000000000000000, 9.999999999999992895 ) ) ;
#298 = CC_DESIGN_PERSON_AND_ORGANIZATION_ASSIGNMENT ( #6, #159, ( #300 ) ) ;
#299 = CALENDAR_DATE ( 2022, 20, 6 ) ;
#300 = PRODUCT_DEFINITION_FORMATION_WITH_SPECIFIED_SOURCE ( 'LIBOVOLNÝ', '', #130, .NOT_KNOWN. ) ;
#301 = CIRCLE ( 'NONE', #259, 0.2000000000000005107 ) ;
#302 = APPROVAL_STATUS ( 'not_yet_approved' ) ;
#303 = ORIENTED_EDGE ( 'NONE', *, *, #64, .F. ) ;
#304 = CIRCLE ( 'NONE', #114, 12.50000000000000000 ) ;
#305 = ADVANCED_FACE ( 'NONE', ( #63 ), #152, .F. ) ;
#306 = EDGE_LOOP ( 'NONE', ( #78, #170 ) ) ;
#307 = DIRECTION ( 'NONE',  ( 0.000000000000000000, 0.000000000000000000, 1.000000000000000000 ) ) ;
ENDSEC;
END-ISO-10303-21;
