ISO-10303-21;
HEADER;
FILE_DESCRIPTION (( 'STEP AP203' ),
    '1' );
FILE_NAME ('da2b.STEP',
    '2022-06-20T09:33:37',
    ( '' ),
    ( '' ),
    'SwSTEP 2.0',
    'SolidWorks 2019',
    '' );
FILE_SCHEMA (( 'CONFIG_CONTROL_DESIGN' ));
ENDSEC;

DATA;
#1 = DATE_AND_TIME ( #106, #156 ) ;
#2 = APPROVAL_DATE_TIME ( #191, #212 ) ;
#3 = ORIENTED_EDGE ( 'NONE', *, *, #203, .F. ) ;
#4 = APPROVAL_STATUS ( 'not_yet_approved' ) ;
#5 = EDGE_LOOP ( 'NONE', ( #10, #271 ) ) ;
#6 = CC_DESIGN_APPROVAL ( #208, ( #266 ) ) ;
#7 = CIRCLE ( 'NONE', #297, 6.000000000000000888 ) ;
#8 =( NAMED_UNIT ( * ) SI_UNIT ( $, .STERADIAN. ) SOLID_ANGLE_UNIT ( ) );
#9 = CALENDAR_DATE ( 2022, 20, 6 ) ;
#10 = ORIENTED_EDGE ( 'NONE', *, *, #232, .T. ) ;
#11 = AXIS2_PLACEMENT_3D ( 'NONE', #143, #46, #211 ) ;
#12 = APPLICATION_CONTEXT ( 'configuration controlled 3d designs of mechanical parts and assemblies' ) ;
#13 = ORIENTED_EDGE ( 'NONE', *, *, #240, .T. ) ;
#14 = PERSON ( 'NEURÈENÝ', 'NEURÈENÝ', 'NEURÈENÝ', ('NEURÈENÝ'), ('NEURÈENÝ'), ('NEURÈENÝ') ) ;
#15 = DIRECTION ( 'NONE',  ( -0.000000000000000000, -0.000000000000000000, -1.000000000000000000 ) ) ;
#16 = CARTESIAN_POINT ( 'NONE',  ( -6.200000000000001066, 7.592810154713590821E-16, 7.199999999999998401 ) ) ;
#17 = DIRECTION ( 'NONE',  ( 0.000000000000000000, 0.000000000000000000, 1.000000000000000000 ) ) ;
#18 = ADVANCED_FACE ( 'NONE', ( #255 ), #110, .F. ) ;
#19 = AXIS2_PLACEMENT_3D ( 'NONE', #87, #17, #43 ) ;
#20 = CYLINDRICAL_SURFACE ( 'NONE', #170, 9.000000000000000000 ) ;
#21 = CARTESIAN_POINT ( 'NONE',  ( -6.000000000000000888, 0.000000000000000000, 7.199999999999998401 ) ) ;
#22 = AXIS2_PLACEMENT_3D ( 'NONE', #281, #163, #189 ) ;
#23 = CARTESIAN_POINT ( 'NONE',  ( 0.000000000000000000, 0.000000000000000000, 7.199999999999998401 ) ) ;
#24 = CIRCLE ( 'NONE', #198, 9.000000000000000000 ) ;
#25 = DIRECTION ( 'NONE',  ( -0.000000000000000000, -0.000000000000000000, -1.000000000000000000 ) ) ;
#26 = PRODUCT_RELATED_PRODUCT_CATEGORY ( 'detail', '', ( #176 ) ) ;
#27 = LINE ( 'NONE', #141, #131 ) ;
#28 = PERSON_AND_ORGANIZATION ( #14, #256 ) ;
#29 = DESIGN_CONTEXT ( 'detailed design', #12, 'design' ) ;
#30 = PERSON_AND_ORGANIZATION ( #14, #256 ) ;
#31 = VERTEX_POINT ( 'NONE', #273 ) ;
#32 = DATE_AND_TIME ( #238, #133 ) ;
#33 = VERTEX_POINT ( 'NONE', #21 ) ;
#34 = PERSON_AND_ORGANIZATION ( #14, #256 ) ;
#35 = AXIS2_PLACEMENT_3D ( 'NONE', #85, #15, #202 ) ;
#36 = PERSON_AND_ORGANIZATION ( #14, #256 ) ;
#37 = EDGE_LOOP ( 'NONE', ( #263, #52 ) ) ;
#38 = EDGE_LOOP ( 'NONE', ( #153, #109 ) ) ;
#39 = AXIS2_PLACEMENT_3D ( 'NONE', #120, #302, #68 ) ;
#40 = CARTESIAN_POINT ( 'NONE',  ( 0.000000000000000000, 0.000000000000000000, 7.000000000000000000 ) ) ;
#41 = CARTESIAN_POINT ( 'NONE',  ( 0.000000000000000000, 0.000000000000000000, 0.000000000000000000 ) ) ;
#42 = DIRECTION ( 'NONE',  ( -0.000000000000000000, -0.000000000000000000, -1.000000000000000000 ) ) ;
#43 = DIRECTION ( 'NONE',  ( 1.000000000000000000, 0.000000000000000000, -0.000000000000000000 ) ) ;
#44 = CARTESIAN_POINT ( 'NONE',  ( 0.000000000000000000, 0.000000000000000000, 7.199999999999998401 ) ) ;
#45 = EDGE_CURVE ( 'NONE', #192, #244, #51, .T. ) ;
#46 = DIRECTION ( 'NONE',  ( 0.000000000000000000, -1.000000000000000000, 0.000000000000000000 ) ) ;
#47 = FACE_OUTER_BOUND ( 'NONE', #37, .T. ) ;
#48 = EDGE_CURVE ( 'NONE', #83, #197, #303, .T. ) ;
#49 = DATE_TIME_ROLE ( 'creation_date' ) ;
#50 = CC_DESIGN_APPROVAL ( #154, ( #188 ) ) ;
#51 = CIRCLE ( 'NONE', #35, 6.200000000000001066 ) ;
#52 = ORIENTED_EDGE ( 'NONE', *, *, #101, .T. ) ;
#53 = PERSON_AND_ORGANIZATION_ROLE ( 'design_supplier' ) ;
#54 = VERTEX_POINT ( 'NONE', #157 ) ;
#55 = APPROVAL_PERSON_ORGANIZATION ( #34, #154, #99 ) ;
#56 = COORDINATED_UNIVERSAL_TIME_OFFSET ( 1, 0, .AHEAD. ) ;
#57 = ORIENTED_EDGE ( 'NONE', *, *, #70, .F. ) ;
#58 = ADVANCED_FACE ( 'NONE', ( #158 ), #138, .F. ) ;
#59 = CARTESIAN_POINT ( 'NONE',  ( 0.000000000000000000, 0.000000000000000000, 132.0000000000000000 ) ) ;
#60 = AXIS2_PLACEMENT_3D ( 'NONE', #23, #71, #304 ) ;
#61 = DIRECTION ( 'NONE',  ( 0.000000000000000000, 0.000000000000000000, 1.000000000000000000 ) ) ;
#62 = DIRECTION ( 'NONE',  ( 0.000000000000000000, 0.000000000000000000, 1.000000000000000000 ) ) ;
#63 = DIRECTION ( 'NONE',  ( -0.000000000000000000, -0.000000000000000000, -1.000000000000000000 ) ) ;
#64 = CYLINDRICAL_SURFACE ( 'NONE', #127, 6.000000000000000888 ) ;
#65 = LOCAL_TIME ( 11, 33, 37.00000000000000000, #151 ) ;
#66 = ADVANCED_FACE ( 'NONE', ( #113 ), #204, .T. ) ;
#67 = FACE_OUTER_BOUND ( 'NONE', #149, .T. ) ;
#68 = DIRECTION ( 'NONE',  ( 1.000000000000000000, 0.000000000000000000, 0.000000000000000000 ) ) ;
#69 = UNCERTAINTY_MEASURE_WITH_UNIT (LENGTH_MEASURE( 1.000000000000000082E-05 ), #73, 'distance_accuracy_value', 'NONE');
#70 = EDGE_CURVE ( 'NONE', #33, #192, #178, .T. ) ;
#71 = DIRECTION ( 'NONE',  ( 0.000000000000000000, 0.000000000000000000, 1.000000000000000000 ) ) ;
#72 = CIRCLE ( 'NONE', #246, 6.000000000000000888 ) ;
#73 =( LENGTH_UNIT ( ) NAMED_UNIT ( * ) SI_UNIT ( .MILLI., .METRE. ) );
#74 = APPROVAL_ROLE ( '' ) ;
#75 = ORIENTED_EDGE ( 'NONE', *, *, #101, .F. ) ;
#76 = AXIS2_PLACEMENT_3D ( 'NONE', #118, #306, #214 ) ;
#77 = EDGE_LOOP ( 'NONE', ( #200, #152, #221, #172 ) ) ;
#78 = APPROVAL_PERSON_ORGANIZATION ( #121, #212, #103 ) ;
#79 = AXIS2_PLACEMENT_3D ( 'NONE', #40, #226, #136 ) ;
#80 = ADVANCED_FACE ( 'NONE', ( #112 ), #64, .T. ) ;
#81 = DIRECTION ( 'NONE',  ( 0.000000000000000000, 0.000000000000000000, 1.000000000000000000 ) ) ;
#82 = APPROVAL_DATE_TIME ( #32, #208 ) ;
#83 = VERTEX_POINT ( 'NONE', #139 ) ;
#84 = CC_DESIGN_PERSON_AND_ORGANIZATION_ASSIGNMENT ( #199, #196, ( #227 ) ) ;
#85 = CARTESIAN_POINT ( 'NONE',  ( 0.000000000000000000, 0.000000000000000000, 7.000000000000000000 ) ) ;
#86 = DIRECTION ( 'NONE',  ( 1.000000000000000000, 0.000000000000000000, 0.000000000000000000 ) ) ;
#87 = CARTESIAN_POINT ( 'NONE',  ( 0.000000000000000000, 0.000000000000000000, 0.000000000000000000 ) ) ;
#88 = DIRECTION ( 'NONE',  ( 0.000000000000000000, 0.000000000000000000, 1.000000000000000000 ) ) ;
#89 = CARTESIAN_POINT ( 'NONE',  ( 0.000000000000000000, 0.000000000000000000, 7.199999999999998401 ) ) ;
#90 = CIRCLE ( 'NONE', #301, 6.200000000000001066 ) ;
#91 = CARTESIAN_POINT ( 'NONE',  ( -9.000000000000000000, 0.000000000000000000, 7.000000000000000000 ) ) ;
#92 = LOCAL_TIME ( 11, 33, 37.00000000000000000, #215 ) ;
#93 =( NAMED_UNIT ( * ) PLANE_ANGLE_UNIT ( ) SI_UNIT ( $, .RADIAN. ) );
#94 = CARTESIAN_POINT ( 'NONE',  ( 9.000000000000000000, 1.102182119232617714E-15, 0.000000000000000000 ) ) ;
#95 = CC_DESIGN_DATE_AND_TIME_ASSIGNMENT ( #218, #49, ( #266 ) ) ;
#96 = DIRECTION ( 'NONE',  ( -0.000000000000000000, -0.000000000000000000, -1.000000000000000000 ) ) ;
#97 = PLANE ( 'NONE',  #76 ) ;
#98 = AXIS2_PLACEMENT_3D ( 'NONE', #245, #81, #269 ) ;
#99 = APPROVAL_ROLE ( '' ) ;
#100 = APPLICATION_PROTOCOL_DEFINITION ( 'international standard', 'config_control_design', 1994, #130 ) ;
#101 = EDGE_CURVE ( 'NONE', #242, #216, #7, .T. ) ;
#102 = ORIENTED_EDGE ( 'NONE', *, *, #70, .T. ) ;
#103 = APPROVAL_ROLE ( '' ) ;
#104 = COORDINATED_UNIVERSAL_TIME_OFFSET ( 1, 0, .AHEAD. ) ;
#105 = ORIENTED_EDGE ( 'NONE', *, *, #283, .T. ) ;
#106 = CALENDAR_DATE ( 2022, 20, 6 ) ;
#107 = VECTOR ( 'NONE', #161, 1000.000000000000000 ) ;
#108 = ORIENTED_EDGE ( 'NONE', *, *, #150, .F. ) ;
#109 = ORIENTED_EDGE ( 'NONE', *, *, #115, .T. ) ;
#110 = TOROIDAL_SURFACE ( 'NONE', #278, 6.200000000000001066, 0.2000000000000000111 ) ;
#111 = DIRECTION ( 'NONE',  ( 1.000000000000000000, 0.000000000000000000, 0.000000000000000000 ) ) ;
#112 = FACE_OUTER_BOUND ( 'NONE', #129, .T. ) ;
#113 = FACE_OUTER_BOUND ( 'NONE', #77, .T. ) ;
#114 = DIRECTION ( 'NONE',  ( 1.000000000000000000, 0.000000000000000000, 0.000000000000000000 ) ) ;
#115 = EDGE_CURVE ( 'NONE', #54, #239, #164, .T. ) ;
#116 = FACE_BOUND ( 'NONE', #5, .T. ) ;
#117 = AXIS2_PLACEMENT_3D ( 'NONE', #16, #276, #231 ) ;
#118 = CARTESIAN_POINT ( 'NONE',  ( 0.000000000000000000, 0.000000000000000000, 132.0000000000000000 ) ) ;
#119 = DIRECTION ( 'NONE',  ( 0.000000000000000000, 0.000000000000000000, 1.000000000000000000 ) ) ;
#120 = CARTESIAN_POINT ( 'NONE',  ( 0.000000000000000000, 0.000000000000000000, 7.199999999999998401 ) ) ;
#121 = PERSON_AND_ORGANIZATION ( #14, #256 ) ;
#122 = ORIENTED_EDGE ( 'NONE', *, *, #294, .T. ) ;
#123 = SECURITY_CLASSIFICATION_LEVEL ( 'unclassified' ) ;
#124 = ORIENTED_EDGE ( 'NONE', *, *, #277, .F. ) ;
#125 = PERSON_AND_ORGANIZATION_ROLE ( 'creator' ) ;
#126 = ORIENTED_EDGE ( 'NONE', *, *, #283, .F. ) ;
#127 = AXIS2_PLACEMENT_3D ( 'NONE', #59, #201, #293 ) ;
#128 = APPROVAL_STATUS ( 'not_yet_approved' ) ;
#129 = EDGE_LOOP ( 'NONE', ( #108, #247, #285, #13 ) ) ;
#130 = APPLICATION_CONTEXT ( 'configuration controlled 3d designs of mechanical parts and assemblies' ) ;
#131 = VECTOR ( 'NONE', #305, 1000.000000000000000 ) ;
#132 = EDGE_LOOP ( 'NONE', ( #3, #124, #248, #287 ) ) ;
#133 = LOCAL_TIME ( 11, 33, 37.00000000000000000, #104 ) ;
#134 = CC_DESIGN_DATE_AND_TIME_ASSIGNMENT ( #147, #190, ( #227 ) ) ;
#135 = PRODUCT_DEFINITION_SHAPE ( 'NONE', 'NONE',  #266 ) ;
#136 = DIRECTION ( 'NONE',  ( -1.000000000000000000, 0.000000000000000000, 0.000000000000000000 ) ) ;
#137 = DIRECTION ( 'NONE',  ( 0.000000000000000000, 0.000000000000000000, 1.000000000000000000 ) ) ;
#138 = PLANE ( 'NONE',  #19 ) ;
#139 = CARTESIAN_POINT ( 'NONE',  ( -9.000000000000000000, 0.000000000000000000, 0.000000000000000000 ) ) ;
#140 = DIRECTION ( 'NONE',  ( 1.000000000000000000, 0.000000000000000000, 0.000000000000000000 ) ) ;
#141 = CARTESIAN_POINT ( 'NONE',  ( 9.000000000000000000, 1.102182119232617714E-15, 7.000000000000000000 ) ) ;
#142 = VECTOR ( 'NONE', #63, 1000.000000000000000 ) ;
#143 = CARTESIAN_POINT ( 'NONE',  ( 6.200000000000001066, 0.000000000000000000, 7.199999999999998401 ) ) ;
#144 = CARTESIAN_POINT ( 'NONE',  ( 0.000000000000000000, 0.000000000000000000, 7.000000000000000000 ) ) ;
#145 = AXIS2_PLACEMENT_3D ( 'NONE', #44, #119, #140 ) ;
#146 = EDGE_CURVE ( 'NONE', #216, #242, #72, .T. ) ;
#147 = DATE_AND_TIME ( #290, #65 ) ;
#148 = EDGE_LOOP ( 'NONE', ( #194, #284 ) ) ;
#149 = EDGE_LOOP ( 'NONE', ( #75, #291, #122, #223 ) ) ;
#150 = EDGE_CURVE ( 'NONE', #242, #31, #180, .T. ) ;
#151 = COORDINATED_UNIVERSAL_TIME_OFFSET ( 1, 0, .AHEAD. ) ;
#152 = ORIENTED_EDGE ( 'NONE', *, *, #203, .T. ) ;
#153 = ORIENTED_EDGE ( 'NONE', *, *, #277, .T. ) ;
#154 = APPROVAL ( #128, 'NEURÈENÝ' ) ;
#155 = CARTESIAN_POINT ( 'NONE',  ( 0.000000000000000000, 0.000000000000000000, 7.000000000000000000 ) ) ;
#156 = LOCAL_TIME ( 11, 33, 37.00000000000000000, #222 ) ;
#157 = CARTESIAN_POINT ( 'NONE',  ( 9.000000000000000000, 1.102182119232617714E-15, 7.000000000000000000 ) ) ;
#158 = FACE_OUTER_BOUND ( 'NONE', #148, .T. ) ;
#159 = LINE ( 'NONE', #249, #213 ) ;
#160 = LOCAL_TIME ( 11, 33, 37.00000000000000000, #56 ) ;
#161 = DIRECTION ( 'NONE',  ( -0.000000000000000000, -0.000000000000000000, -1.000000000000000000 ) ) ;
#162 = CARTESIAN_POINT ( 'NONE',  ( 0.000000000000000000, 0.000000000000000000, 132.0000000000000000 ) ) ;
#163 = DIRECTION ( 'NONE',  ( 0.000000000000000000, 0.000000000000000000, 1.000000000000000000 ) ) ;
#164 = CIRCLE ( 'NONE', #205, 9.000000000000000000 ) ;
#165 = CIRCLE ( 'NONE', #39, 6.000000000000000888 ) ;
#166 = EDGE_LOOP ( 'NONE', ( #57, #219, #105, #289 ) ) ;
#167 = ORIENTED_EDGE ( 'NONE', *, *, #240, .F. ) ;
#168 = ADVANCED_FACE ( 'NONE', ( #254 ), #20, .T. ) ;
#169 = SHAPE_DEFINITION_REPRESENTATION ( #135, #270 ) ;
#170 = AXIS2_PLACEMENT_3D ( 'NONE', #155, #250, #228 ) ;
#171 = APPLICATION_PROTOCOL_DEFINITION ( 'international standard', 'config_control_design', 1994, #12 ) ;
#172 = ORIENTED_EDGE ( 'NONE', *, *, #307, .F. ) ;
#173 = CARTESIAN_POINT ( 'NONE',  ( -6.200000000000001066, 7.592810154713590821E-16, 6.999999999999999112 ) ) ;
#174 = EDGE_CURVE ( 'NONE', #197, #83, #264, .T. ) ;
#175 = CARTESIAN_POINT ( 'NONE',  ( 0.000000000000000000, 0.000000000000000000, 132.0000000000000000 ) ) ;
#176 = PRODUCT ( 'da2b', 'da2b', '', ( #243 ) ) ;
#177 = CARTESIAN_POINT ( 'NONE',  ( 6.000000000000000888, 7.347880794884120722E-16, 132.0000000000000000 ) ) ;
#178 = CIRCLE ( 'NONE', #117, 0.1999999999999996503 ) ;
#179 = EDGE_CURVE ( 'NONE', #216, #33, #159, .T. ) ;
#180 = LINE ( 'NONE', #177, #142 ) ;
#181 = CIRCLE ( 'NONE', #60, 6.000000000000000888 ) ;
#182 = AXIS2_PLACEMENT_3D ( 'NONE', #162, #25, #261 ) ;
#183 = CARTESIAN_POINT ( 'NONE',  ( -6.000000000000000888, 0.000000000000000000, 132.0000000000000000 ) ) ;
#184 = CC_DESIGN_PERSON_AND_ORGANIZATION_ASSIGNMENT ( #30, #220, ( #188 ) ) ;
#185 = CARTESIAN_POINT ( 'NONE',  ( 0.000000000000000000, 0.000000000000000000, 7.000000000000000000 ) ) ;
#186 = CARTESIAN_POINT ( 'NONE',  ( 6.000000000000000888, 7.347880794884120722E-16, 132.0000000000000000 ) ) ;
#187 = CC_DESIGN_PERSON_AND_ORGANIZATION_ASSIGNMENT ( #36, #125, ( #266 ) ) ;
#188 = PRODUCT_DEFINITION_FORMATION_WITH_SPECIFIED_SOURCE ( 'LIBOVOLNÝ', '', #176, .NOT_KNOWN. ) ;
#189 = DIRECTION ( 'NONE',  ( 1.000000000000000000, 0.000000000000000000, -0.000000000000000000 ) ) ;
#190 = DATE_TIME_ROLE ( 'classification_date' ) ;
#191 = DATE_AND_TIME ( #193, #92 ) ;
#192 = VERTEX_POINT ( 'NONE', #173 ) ;
#193 = CALENDAR_DATE ( 2022, 20, 6 ) ;
#194 = ORIENTED_EDGE ( 'NONE', *, *, #48, .F. ) ;
#195 = ADVANCED_FACE ( 'NONE', ( #206 ), #225, .F. ) ;
#196 = PERSON_AND_ORGANIZATION_ROLE ( 'classification_officer' ) ;
#197 = VERTEX_POINT ( 'NONE', #94 ) ;
#198 = AXIS2_PLACEMENT_3D ( 'NONE', #144, #257, #236 ) ;
#199 = PERSON_AND_ORGANIZATION ( #14, #256 ) ;
#200 = ORIENTED_EDGE ( 'NONE', *, *, #115, .F. ) ;
#201 = DIRECTION ( 'NONE',  ( -0.000000000000000000, -0.000000000000000000, -1.000000000000000000 ) ) ;
#202 = DIRECTION ( 'NONE',  ( 1.000000000000000000, 0.000000000000000000, 0.000000000000000000 ) ) ;
#203 = EDGE_CURVE ( 'NONE', #54, #197, #27, .T. ) ;
#204 = CYLINDRICAL_SURFACE ( 'NONE', #79, 9.000000000000000000 ) ;
#205 = AXIS2_PLACEMENT_3D ( 'NONE', #296, #88, #292 ) ;
#206 = FACE_OUTER_BOUND ( 'NONE', #166, .T. ) ;
#207 = AXIS2_PLACEMENT_3D ( 'NONE', #41, #137, #114 ) ;
#208 = APPROVAL ( #265, 'NEURÈENÝ' ) ;
#209 = APPROVAL_PERSON_ORGANIZATION ( #28, #208, #74 ) ;
#210 = CARTESIAN_POINT ( 'NONE',  ( -9.000000000000000000, 0.000000000000000000, 7.000000000000000000 ) ) ;
#211 = DIRECTION ( 'NONE',  ( 0.000000000000000000, 0.000000000000000000, -1.000000000000000000 ) ) ;
#212 = APPROVAL ( #4, 'NEURÈENÝ' ) ;
#213 = VECTOR ( 'NONE', #42, 1000.000000000000000 ) ;
#214 = DIRECTION ( 'NONE',  ( 1.000000000000000000, 0.000000000000000000, -0.000000000000000000 ) ) ;
#215 = COORDINATED_UNIVERSAL_TIME_OFFSET ( 1, 0, .AHEAD. ) ;
#216 = VERTEX_POINT ( 'NONE', #183 ) ;
#217 = MANIFOLD_SOLID_BREP ( 'Zaoblit1', #237 ) ;
#218 = DATE_AND_TIME ( #9, #160 ) ;
#219 = ORIENTED_EDGE ( 'NONE', *, *, #294, .F. ) ;
#220 = PERSON_AND_ORGANIZATION_ROLE ( 'creator' ) ;
#221 = ORIENTED_EDGE ( 'NONE', *, *, #174, .T. ) ;
#222 = COORDINATED_UNIVERSAL_TIME_OFFSET ( 1, 0, .AHEAD. ) ;
#223 = ORIENTED_EDGE ( 'NONE', *, *, #179, .F. ) ;
#224 = ADVANCED_FACE ( 'NONE', ( #67 ), #233, .T. ) ;
#225 = TOROIDAL_SURFACE ( 'NONE', #145, 6.200000000000001066, 0.2000000000000000111 ) ;
#226 = DIRECTION ( 'NONE',  ( -0.000000000000000000, -0.000000000000000000, -1.000000000000000000 ) ) ;
#227 = SECURITY_CLASSIFICATION ( '', '', #123 ) ;
#228 = DIRECTION ( 'NONE',  ( -1.000000000000000000, 0.000000000000000000, 0.000000000000000000 ) ) ;
#229 = DIRECTION ( 'NONE',  ( 1.000000000000000000, 0.000000000000000000, 0.000000000000000000 ) ) ;
#230 = CC_DESIGN_SECURITY_CLASSIFICATION ( #227, ( #188 ) ) ;
#231 = DIRECTION ( 'NONE',  ( -1.000000000000000000, 1.224646799147353454E-16, 0.000000000000000000 ) ) ;
#232 = EDGE_CURVE ( 'NONE', #244, #192, #90, .T. ) ;
#233 = CYLINDRICAL_SURFACE ( 'NONE', #182, 6.000000000000000888 ) ;
#234 = FACE_OUTER_BOUND ( 'NONE', #38, .T. ) ;
#235 = CIRCLE ( 'NONE', #11, 0.1999999999999996503 ) ;
#236 = DIRECTION ( 'NONE',  ( 1.000000000000000000, 0.000000000000000000, 0.000000000000000000 ) ) ;
#237 = CLOSED_SHELL ( 'NONE', ( #18, #224, #66, #168, #298, #58, #80, #252, #195 ) ) ;
#238 = CALENDAR_DATE ( 2022, 20, 6 ) ;
#239 = VERTEX_POINT ( 'NONE', #210 ) ;
#240 = EDGE_CURVE ( 'NONE', #33, #31, #165, .T. ) ;
#241 = PERSON_AND_ORGANIZATION_ROLE ( 'design_owner' ) ;
#242 = VERTEX_POINT ( 'NONE', #186 ) ;
#243 = MECHANICAL_CONTEXT ( 'NONE', #130, 'mechanical' ) ;
#244 = VERTEX_POINT ( 'NONE', #300 ) ;
#245 = CARTESIAN_POINT ( 'NONE',  ( 0.000000000000000000, 0.000000000000000000, 0.000000000000000000 ) ) ;
#246 = AXIS2_PLACEMENT_3D ( 'NONE', #275, #61, #253 ) ;
#247 = ORIENTED_EDGE ( 'NONE', *, *, #146, .F. ) ;
#248 = ORIENTED_EDGE ( 'NONE', *, *, #307, .T. ) ;
#249 = CARTESIAN_POINT ( 'NONE',  ( -6.000000000000000888, 0.000000000000000000, 132.0000000000000000 ) ) ;
#250 = DIRECTION ( 'NONE',  ( -0.000000000000000000, -0.000000000000000000, -1.000000000000000000 ) ) ;
#251 = AXIS2_PLACEMENT_3D ( 'NONE', #299, #62, #86 ) ;
#252 = ADVANCED_FACE ( 'NONE', ( #47 ), #97, .T. ) ;
#253 = DIRECTION ( 'NONE',  ( 1.000000000000000000, 0.000000000000000000, 0.000000000000000000 ) ) ;
#254 = FACE_OUTER_BOUND ( 'NONE', #132, .T. ) ;
#255 = FACE_OUTER_BOUND ( 'NONE', #267, .T. ) ;
#256 = ORGANIZATION ( 'NEURÈENÝ', 'NEURÈENÝ', '' ) ;
#257 = DIRECTION ( 'NONE',  ( 0.000000000000000000, 0.000000000000000000, 1.000000000000000000 ) ) ;
#258 = CC_DESIGN_PERSON_AND_ORGANIZATION_ASSIGNMENT ( #286, #53, ( #188 ) ) ;
#259 = LINE ( 'NONE', #91, #107 ) ;
#260 = DIRECTION ( 'NONE',  ( 1.000000000000000000, 0.000000000000000000, 0.000000000000000000 ) ) ;
#261 = DIRECTION ( 'NONE',  ( -1.000000000000000000, 0.000000000000000000, 0.000000000000000000 ) ) ;
#262 = ORIENTED_EDGE ( 'NONE', *, *, #232, .F. ) ;
#263 = ORIENTED_EDGE ( 'NONE', *, *, #146, .T. ) ;
#264 = CIRCLE ( 'NONE', #207, 9.000000000000000000 ) ;
#265 = APPROVAL_STATUS ( 'not_yet_approved' ) ;
#266 = PRODUCT_DEFINITION ( 'NEZNÁMÝ', '', #188, #29 ) ;
#267 = EDGE_LOOP ( 'NONE', ( #167, #102, #262, #126 ) ) ;
#268 = CC_DESIGN_APPROVAL ( #212, ( #227 ) ) ;
#269 = DIRECTION ( 'NONE',  ( 1.000000000000000000, 0.000000000000000000, 0.000000000000000000 ) ) ;
#270 = ADVANCED_BREP_SHAPE_REPRESENTATION ( 'da2b', ( #217, #98 ), #274 ) ;
#271 = ORIENTED_EDGE ( 'NONE', *, *, #45, .T. ) ;
#272 = DIRECTION ( 'NONE',  ( 0.000000000000000000, 0.000000000000000000, 1.000000000000000000 ) ) ;
#273 = CARTESIAN_POINT ( 'NONE',  ( 6.000000000000000888, 7.347880794884120722E-16, 7.199999999999998401 ) ) ;
#274 =( GEOMETRIC_REPRESENTATION_CONTEXT ( 3 ) GLOBAL_UNCERTAINTY_ASSIGNED_CONTEXT ( ( #69 ) ) GLOBAL_UNIT_ASSIGNED_CONTEXT ( ( #73, #93, #8 ) ) REPRESENTATION_CONTEXT ( 'NONE', 'WORKASPACE' ) );
#275 = CARTESIAN_POINT ( 'NONE',  ( 0.000000000000000000, 0.000000000000000000, 132.0000000000000000 ) ) ;
#276 = DIRECTION ( 'NONE',  ( 1.224646799147353207E-16, 1.000000000000000000, -0.000000000000000000 ) ) ;
#277 = EDGE_CURVE ( 'NONE', #239, #54, #24, .T. ) ;
#278 = AXIS2_PLACEMENT_3D ( 'NONE', #89, #295, #111 ) ;
#279 = CC_DESIGN_PERSON_AND_ORGANIZATION_ASSIGNMENT ( #288, #241, ( #176 ) ) ;
#280 = PLANE ( 'NONE',  #22 ) ;
#281 = CARTESIAN_POINT ( 'NONE',  ( 0.000000000000000000, 0.000000000000000000, 7.000000000000000000 ) ) ;
#282 = APPROVAL_DATE_TIME ( #1, #154 ) ;
#283 = EDGE_CURVE ( 'NONE', #31, #244, #235, .T. ) ;
#284 = ORIENTED_EDGE ( 'NONE', *, *, #174, .F. ) ;
#285 = ORIENTED_EDGE ( 'NONE', *, *, #179, .T. ) ;
#286 = PERSON_AND_ORGANIZATION ( #14, #256 ) ;
#287 = ORIENTED_EDGE ( 'NONE', *, *, #48, .T. ) ;
#288 = PERSON_AND_ORGANIZATION ( #14, #256 ) ;
#289 = ORIENTED_EDGE ( 'NONE', *, *, #45, .F. ) ;
#290 = CALENDAR_DATE ( 2022, 20, 6 ) ;
#291 = ORIENTED_EDGE ( 'NONE', *, *, #150, .T. ) ;
#292 = DIRECTION ( 'NONE',  ( 1.000000000000000000, 0.000000000000000000, 0.000000000000000000 ) ) ;
#293 = DIRECTION ( 'NONE',  ( -1.000000000000000000, 0.000000000000000000, 0.000000000000000000 ) ) ;
#294 = EDGE_CURVE ( 'NONE', #31, #33, #181, .T. ) ;
#295 = DIRECTION ( 'NONE',  ( 0.000000000000000000, 0.000000000000000000, 1.000000000000000000 ) ) ;
#296 = CARTESIAN_POINT ( 'NONE',  ( 0.000000000000000000, 0.000000000000000000, 7.000000000000000000 ) ) ;
#297 = AXIS2_PLACEMENT_3D ( 'NONE', #175, #272, #229 ) ;
#298 = ADVANCED_FACE ( 'NONE', ( #116, #234 ), #280, .T. ) ;
#299 = CARTESIAN_POINT ( 'NONE',  ( 0.000000000000000000, 0.000000000000000000, 0.000000000000000000 ) ) ;
#300 = CARTESIAN_POINT ( 'NONE',  ( 6.200000000000001066, 0.000000000000000000, 6.999999999999999112 ) ) ;
#301 = AXIS2_PLACEMENT_3D ( 'NONE', #185, #96, #260 ) ;
#302 = DIRECTION ( 'NONE',  ( 0.000000000000000000, 0.000000000000000000, 1.000000000000000000 ) ) ;
#303 = CIRCLE ( 'NONE', #251, 9.000000000000000000 ) ;
#304 = DIRECTION ( 'NONE',  ( 1.000000000000000000, 0.000000000000000000, 0.000000000000000000 ) ) ;
#305 = DIRECTION ( 'NONE',  ( -0.000000000000000000, -0.000000000000000000, -1.000000000000000000 ) ) ;
#306 = DIRECTION ( 'NONE',  ( 0.000000000000000000, 0.000000000000000000, 1.000000000000000000 ) ) ;
#307 = EDGE_CURVE ( 'NONE', #239, #83, #259, .T. ) ;
ENDSEC;
END-ISO-10303-21;
