ISO-10303-21;
HEADER;
FILE_DESCRIPTION (( 'STEP AP203' ),
    '1' );
FILE_NAME ('8a54.STEP',
    '2022-06-20T10:23:17',
    ( '' ),
    ( '' ),
    'SwSTEP 2.0',
    'SolidWorks 2019',
    '' );
FILE_SCHEMA (( 'CONFIG_CONTROL_DESIGN' ));
ENDSEC;

DATA;
#1 = AXIS2_PLACEMENT_3D ( 'NONE', #40, #24, #300 ) ;
#2 = EDGE_CURVE ( 'NONE', #106, #68, #103, .T. ) ;
#3 = ORIENTED_EDGE ( 'NONE', *, *, #117, .T. ) ;
#4 = CARTESIAN_POINT ( 'NONE',  ( 0.000000000000000000, 0.000000000000000000, 0.000000000000000000 ) ) ;
#5 = DATE_TIME_ROLE ( 'classification_date' ) ;
#6 = EDGE_LOOP ( 'NONE', ( #281, #132, #49, #306 ) ) ;
#7 = PLANE ( 'NONE',  #279 ) ;
#8 = DATE_AND_TIME ( #225, #159 ) ;
#9 = AXIS2_PLACEMENT_3D ( 'NONE', #128, #131, #65 ) ;
#10 = DIRECTION ( 'NONE',  ( 1.000000000000000000, 0.000000000000000000, 0.000000000000000000 ) ) ;
#11 = PERSON ( 'NEURÈENÝ', 'NEURÈENÝ', 'NEURÈENÝ', ('NEURÈENÝ'), ('NEURÈENÝ'), ('NEURÈENÝ') ) ;
#12 = CYLINDRICAL_SURFACE ( 'NONE', #192, 1.500000000000000222 ) ;
#13 = DIRECTION ( 'NONE',  ( 0.000000000000000000, 0.000000000000000000, 1.000000000000000000 ) ) ;
#14 = PLANE ( 'NONE',  #166 ) ;
#15 = DIRECTION ( 'NONE',  ( 0.000000000000000000, 0.000000000000000000, 1.000000000000000000 ) ) ;
#16 = APPROVAL ( #292, 'NEURÈENÝ' ) ;
#17 = EDGE_LOOP ( 'NONE', ( #185, #180 ) ) ;
#18 = DIRECTION ( 'NONE',  ( -1.000000000000000000, 0.000000000000000000, 0.000000000000000000 ) ) ;
#19 = CARTESIAN_POINT ( 'NONE',  ( 0.000000000000000000, 0.000000000000000000, 1.500000000000000000 ) ) ;
#20 = AXIS2_PLACEMENT_3D ( 'NONE', #143, #170, #271 ) ;
#21 = CARTESIAN_POINT ( 'NONE',  ( 0.000000000000000000, 0.000000000000000000, 0.000000000000000000 ) ) ;
#22 = CARTESIAN_POINT ( 'NONE',  ( -0.7500000000000001110, 0.000000000000000000, 101.5000000000000000 ) ) ;
#23 = VERTEX_POINT ( 'NONE', #303 ) ;
#24 = DIRECTION ( 'NONE',  ( 0.000000000000000000, 0.000000000000000000, 1.000000000000000000 ) ) ;
#25 = VECTOR ( 'NONE', #224, 1000.000000000000000 ) ;
#26 = AXIS2_PLACEMENT_3D ( 'NONE', #201, #15, #230 ) ;
#27 = EDGE_CURVE ( 'NONE', #268, #138, #79, .T. ) ;
#28 = ORIENTED_EDGE ( 'NONE', *, *, #184, .T. ) ;
#29 = EDGE_CURVE ( 'NONE', #209, #160, #226, .T. ) ;
#30 = APPROVAL_DATE_TIME ( #116, #16 ) ;
#31 = LINE ( 'NONE', #78, #203 ) ;
#32 = PERSON_AND_ORGANIZATION ( #11, #301 ) ;
#33 = PLANE ( 'NONE',  #107 ) ;
#34 = DIRECTION ( 'NONE',  ( 0.000000000000000000, -1.000000000000000000, 0.000000000000000000 ) ) ;
#35 = FACE_OUTER_BOUND ( 'NONE', #95, .T. ) ;
#36 = EDGE_CURVE ( 'NONE', #62, #138, #84, .T. ) ;
#37 = CARTESIAN_POINT ( 'NONE',  ( 0.000000000000000000, 0.000000000000000000, 1.700000000000007061 ) ) ;
#38 = LOCAL_TIME ( 12, 23, 17.00000000000000000, #144 ) ;
#39 =( NAMED_UNIT ( * ) PLANE_ANGLE_UNIT ( ) SI_UNIT ( $, .RADIAN. ) );
#40 = CARTESIAN_POINT ( 'NONE',  ( 0.000000000000000000, 0.000000000000000000, 0.000000000000000000 ) ) ;
#41 = PERSON_AND_ORGANIZATION ( #11, #301 ) ;
#42 = ORIENTED_EDGE ( 'NONE', *, *, #210, .T. ) ;
#43 = AXIS2_PLACEMENT_3D ( 'NONE', #19, #113, #109 ) ;
#44 = VERTEX_POINT ( 'NONE', #262 ) ;
#45 = DIRECTION ( 'NONE',  ( 1.224646799147353207E-16, 1.000000000000000000, -0.000000000000000000 ) ) ;
#46 = EDGE_CURVE ( 'NONE', #138, #23, #50, .T. ) ;
#47 = ORIENTED_EDGE ( 'NONE', *, *, #75, .F. ) ;
#48 = SECURITY_CLASSIFICATION_LEVEL ( 'unclassified' ) ;
#49 = ORIENTED_EDGE ( 'NONE', *, *, #186, .T. ) ;
#50 = CIRCLE ( 'NONE', #120, 0.2000000000000000944 ) ;
#51 = CARTESIAN_POINT ( 'NONE',  ( -1.500000000000000222, 0.000000000000000000, 1.500000000000000000 ) ) ;
#52 = PERSON_AND_ORGANIZATION ( #11, #301 ) ;
#53 = ORIENTED_EDGE ( 'NONE', *, *, #228, .F. ) ;
#54 = CARTESIAN_POINT ( 'NONE',  ( 0.000000000000000000, 0.000000000000000000, 101.5000000000000000 ) ) ;
#55 = CYLINDRICAL_SURFACE ( 'NONE', #20, 1.500000000000000222 ) ;
#56 = CIRCLE ( 'NONE', #165, 0.7500000000000001110 ) ;
#57 = CARTESIAN_POINT ( 'NONE',  ( 0.9500000000000000666, 0.000000000000000000, 1.700000000000007061 ) ) ;
#58 = DIRECTION ( 'NONE',  ( 0.000000000000000000, 0.000000000000000000, 1.000000000000000000 ) ) ;
#59 = DIRECTION ( 'NONE',  ( 0.000000000000000000, 0.000000000000000000, 1.000000000000000000 ) ) ;
#60 = EDGE_LOOP ( 'NONE', ( #42, #3 ) ) ;
#61 = CARTESIAN_POINT ( 'NONE',  ( 0.7500000000000001110, 9.184850993605150903E-17, 101.5000000000000000 ) ) ;
#62 = VERTEX_POINT ( 'NONE', #22 ) ;
#63 = CYLINDRICAL_SURFACE ( 'NONE', #135, 0.7500000000000001110 ) ;
#64 = ORIENTED_EDGE ( 'NONE', *, *, #153, .T. ) ;
#65 = DIRECTION ( 'NONE',  ( 1.000000000000000000, 0.000000000000000000, 0.000000000000000000 ) ) ;
#66 = PERSON_AND_ORGANIZATION_ROLE ( 'classification_officer' ) ;
#67 = ORIENTED_EDGE ( 'NONE', *, *, #117, .F. ) ;
#68 = VERTEX_POINT ( 'NONE', #111 ) ;
#69 = PERSON_AND_ORGANIZATION_ROLE ( 'creator' ) ;
#70 = EDGE_CURVE ( 'NONE', #23, #44, #241, .T. ) ;
#71 = AXIS2_PLACEMENT_3D ( 'NONE', #272, #13, #295 ) ;
#72 = CARTESIAN_POINT ( 'NONE',  ( 1.500000000000000222, 1.836970198721030181E-16, 1.500000000000000000 ) ) ;
#73 = APPROVAL_ROLE ( '' ) ;
#74 = ORIENTED_EDGE ( 'NONE', *, *, #70, .F. ) ;
#75 = EDGE_CURVE ( 'NONE', #44, #23, #147, .T. ) ;
#76 = DIRECTION ( 'NONE',  ( 1.000000000000000000, 0.000000000000000000, -0.000000000000000000 ) ) ;
#77 = FACE_OUTER_BOUND ( 'NONE', #233, .T. ) ;
#78 = CARTESIAN_POINT ( 'NONE',  ( 0.7500000000000001110, 9.184850993605150903E-17, 101.5000000000000000 ) ) ;
#79 = CIRCLE ( 'NONE', #9, 0.7500000000000001110 ) ;
#80 = APPROVAL_PERSON_ORGANIZATION ( #41, #276, #110 ) ;
#81 = CARTESIAN_POINT ( 'NONE',  ( -1.500000000000000222, 0.000000000000000000, 1.500000000000000000 ) ) ;
#82 = CARTESIAN_POINT ( 'NONE',  ( 0.000000000000000000, 0.000000000000000000, 1.500000000000000000 ) ) ;
#83 = APPROVAL_PERSON_ORGANIZATION ( #32, #16, #115 ) ;
#84 = LINE ( 'NONE', #85, #183 ) ;
#85 = CARTESIAN_POINT ( 'NONE',  ( -0.7500000000000001110, 0.000000000000000000, 101.5000000000000000 ) ) ;
#86 = CC_DESIGN_DATE_AND_TIME_ASSIGNMENT ( #8, #5, ( #148 ) ) ;
#87 = CARTESIAN_POINT ( 'NONE',  ( 0.7500000000000001110, 9.184850993605150903E-17, 1.700000000000007061 ) ) ;
#88 = CARTESIAN_POINT ( 'NONE',  ( 0.000000000000000000, 0.000000000000000000, 1.500000000000000000 ) ) ;
#89 = ADVANCED_FACE ( 'NONE', ( #199 ), #55, .T. ) ;
#90 = ORIENTED_EDGE ( 'NONE', *, *, #208, .T. ) ;
#91 = CC_DESIGN_APPROVAL ( #16, ( #246 ) ) ;
#92 = CIRCLE ( 'NONE', #176, 1.500000000000000222 ) ;
#93 = ORIENTED_EDGE ( 'NONE', *, *, #127, .T. ) ;
#94 = PERSON_AND_ORGANIZATION ( #11, #301 ) ;
#95 = EDGE_LOOP ( 'NONE', ( #237, #204, #93, #74 ) ) ;
#96 = FACE_OUTER_BOUND ( 'NONE', #6, .T. ) ;
#97 = APPROVAL_DATE_TIME ( #168, #282 ) ;
#98 = CIRCLE ( 'NONE', #264, 0.2000000000000000944 ) ;
#99 = CARTESIAN_POINT ( 'NONE',  ( 0.000000000000000000, 0.000000000000000000, 1.500000000000000000 ) ) ;
#100 = APPROVAL_STATUS ( 'not_yet_approved' ) ;
#101 = LINE ( 'NONE', #51, #287 ) ;
#102 = CARTESIAN_POINT ( 'NONE',  ( 0.000000000000000000, 0.000000000000000000, 1.500000000000000000 ) ) ;
#103 = CIRCLE ( 'NONE', #1, 1.500000000000000222 ) ;
#104 = DIRECTION ( 'NONE',  ( -1.000000000000000000, 0.000000000000000000, 0.000000000000000000 ) ) ;
#105 = TOROIDAL_SURFACE ( 'NONE', #278, 0.9500000000000000666, 0.2000000000000000111 ) ;
#106 = VERTEX_POINT ( 'NONE', #175 ) ;
#107 = AXIS2_PLACEMENT_3D ( 'NONE', #146, #174, #227 ) ;
#108 =( GEOMETRIC_REPRESENTATION_CONTEXT ( 3 ) GLOBAL_UNCERTAINTY_ASSIGNED_CONTEXT ( ( #267 ) ) GLOBAL_UNIT_ASSIGNED_CONTEXT ( ( #259, #39, #156 ) ) REPRESENTATION_CONTEXT ( 'NONE', 'WORKASPACE' ) );
#109 = DIRECTION ( 'NONE',  ( 1.000000000000000000, 0.000000000000000000, 0.000000000000000000 ) ) ;
#110 = APPROVAL_ROLE ( '' ) ;
#111 = CARTESIAN_POINT ( 'NONE',  ( 1.500000000000000222, 1.836970198721030181E-16, 0.000000000000000000 ) ) ;
#112 = ORIENTED_EDGE ( 'NONE', *, *, #36, .F. ) ;
#113 = DIRECTION ( 'NONE',  ( 0.000000000000000000, 0.000000000000000000, 1.000000000000000000 ) ) ;
#114 = EDGE_LOOP ( 'NONE', ( #155, #305, #178, #28 ) ) ;
#115 = APPROVAL_ROLE ( '' ) ;
#116 = DATE_AND_TIME ( #247, #38 ) ;
#117 = EDGE_CURVE ( 'NONE', #293, #62, #216, .T. ) ;
#118 = LINE ( 'NONE', #72, #25 ) ;
#119 = DATE_AND_TIME ( #187, #193 ) ;
#120 = AXIS2_PLACEMENT_3D ( 'NONE', #158, #45, #236 ) ;
#121 = CIRCLE ( 'NONE', #198, 1.500000000000000222 ) ;
#122 = DIRECTION ( 'NONE',  ( 1.000000000000000000, 0.000000000000000000, 0.000000000000000000 ) ) ;
#123 = CARTESIAN_POINT ( 'NONE',  ( 0.000000000000000000, 0.000000000000000000, 1.700000000000007061 ) ) ;
#124 = DIRECTION ( 'NONE',  ( 0.000000000000000000, 0.000000000000000000, -1.000000000000000000 ) ) ;
#125 = AXIS2_PLACEMENT_3D ( 'NONE', #88, #206, #182 ) ;
#126 = CARTESIAN_POINT ( 'NONE',  ( 0.000000000000000000, 0.000000000000000000, 101.5000000000000000 ) ) ;
#127 = EDGE_CURVE ( 'NONE', #268, #44, #98, .T. ) ;
#128 = CARTESIAN_POINT ( 'NONE',  ( 0.000000000000000000, 0.000000000000000000, 1.700000000000007061 ) ) ;
#129 = DIRECTION ( 'NONE',  ( 1.000000000000000000, 0.000000000000000000, -0.000000000000000000 ) ) ;
#130 = APPROVAL_PERSON_ORGANIZATION ( #163, #282, #73 ) ;
#131 = DIRECTION ( 'NONE',  ( 0.000000000000000000, 0.000000000000000000, 1.000000000000000000 ) ) ;
#132 = ORIENTED_EDGE ( 'NONE', *, *, #228, .T. ) ;
#133 = DIRECTION ( 'NONE',  ( -0.000000000000000000, -0.000000000000000000, -1.000000000000000000 ) ) ;
#134 = AXIS2_PLACEMENT_3D ( 'NONE', #150, #149, #104 ) ;
#135 = AXIS2_PLACEMENT_3D ( 'NONE', #126, #298, #18 ) ;
#136 = CC_DESIGN_PERSON_AND_ORGANIZATION_ASSIGNMENT ( #52, #289, ( #246 ) ) ;
#137 = DATE_TIME_ROLE ( 'creation_date' ) ;
#138 = VERTEX_POINT ( 'NONE', #167 ) ;
#139 = EDGE_LOOP ( 'NONE', ( #261, #231 ) ) ;
#140 = CIRCLE ( 'NONE', #71, 0.7500000000000001110 ) ;
#141 = CC_DESIGN_APPROVAL ( #276, ( #197 ) ) ;
#142 = ADVANCED_FACE ( 'NONE', ( #251 ), #105, .F. ) ;
#143 = CARTESIAN_POINT ( 'NONE',  ( 0.000000000000000000, 0.000000000000000000, 1.500000000000000000 ) ) ;
#144 = COORDINATED_UNIVERSAL_TIME_OFFSET ( 1, 0, .AHEAD. ) ;
#145 = ORIENTED_EDGE ( 'NONE', *, *, #46, .T. ) ;
#146 = CARTESIAN_POINT ( 'NONE',  ( 0.000000000000000000, 0.000000000000000000, 101.5000000000000000 ) ) ;
#147 = CIRCLE ( 'NONE', #252, 0.9500000000000000666 ) ;
#148 = SECURITY_CLASSIFICATION ( '', '', #48 ) ;
#149 = DIRECTION ( 'NONE',  ( -0.000000000000000000, -0.000000000000000000, -1.000000000000000000 ) ) ;
#150 = CARTESIAN_POINT ( 'NONE',  ( 0.000000000000000000, 0.000000000000000000, 101.5000000000000000 ) ) ;
#151 = CC_DESIGN_DATE_AND_TIME_ASSIGNMENT ( #119, #137, ( #197 ) ) ;
#152 = DIRECTION ( 'NONE',  ( -0.000000000000000000, -0.000000000000000000, -1.000000000000000000 ) ) ;
#153 = EDGE_CURVE ( 'NONE', #293, #268, #31, .T. ) ;
#154 = FACE_OUTER_BOUND ( 'NONE', #139, .T. ) ;
#155 = ORIENTED_EDGE ( 'NONE', *, *, #153, .F. ) ;
#156 =( NAMED_UNIT ( * ) SI_UNIT ( $, .STERADIAN. ) SOLID_ANGLE_UNIT ( ) );
#157 = ADVANCED_FACE ( 'NONE', ( #77 ), #248, .T. ) ;
#158 = CARTESIAN_POINT ( 'NONE',  ( -0.9500000000000000666, 1.163414459189985682E-16, 1.700000000000007061 ) ) ;
#159 = LOCAL_TIME ( 12, 23, 17.00000000000000000, #189 ) ;
#160 = VERTEX_POINT ( 'NONE', #81 ) ;
#161 = EDGE_LOOP ( 'NONE', ( #53, #202, #90, #266 ) ) ;
#162 = ADVANCED_FACE ( 'NONE', ( #255 ), #33, .T. ) ;
#163 = PERSON_AND_ORGANIZATION ( #11, #301 ) ;
#164 = ORIENTED_EDGE ( 'NONE', *, *, #75, .T. ) ;
#165 = AXIS2_PLACEMENT_3D ( 'NONE', #123, #275, #122 ) ;
#166 = AXIS2_PLACEMENT_3D ( 'NONE', #21, #59, #129 ) ;
#167 = CARTESIAN_POINT ( 'NONE',  ( -0.7500000000000001110, 0.000000000000000000, 1.700000000000007061 ) ) ;
#168 = DATE_AND_TIME ( #191, #253 ) ;
#169 = EDGE_LOOP ( 'NONE', ( #164, #211 ) ) ;
#170 = DIRECTION ( 'NONE',  ( -0.000000000000000000, -0.000000000000000000, -1.000000000000000000 ) ) ;
#171 = DIRECTION ( 'NONE',  ( 0.000000000000000000, 0.000000000000000000, 1.000000000000000000 ) ) ;
#172 = PRODUCT_RELATED_PRODUCT_CATEGORY ( 'detail', '', ( #194 ) ) ;
#173 = CC_DESIGN_SECURITY_CLASSIFICATION ( #148, ( #246 ) ) ;
#174 = DIRECTION ( 'NONE',  ( 0.000000000000000000, 0.000000000000000000, 1.000000000000000000 ) ) ;
#175 = CARTESIAN_POINT ( 'NONE',  ( -1.500000000000000222, 0.000000000000000000, 0.000000000000000000 ) ) ;
#176 = AXIS2_PLACEMENT_3D ( 'NONE', #4, #171, #196 ) ;
#177 = DIRECTION ( 'NONE',  ( 0.000000000000000000, 0.000000000000000000, 1.000000000000000000 ) ) ;
#178 = ORIENTED_EDGE ( 'NONE', *, *, #36, .T. ) ;
#179 = APPLICATION_PROTOCOL_DEFINITION ( 'international standard', 'config_control_design', 1994, #258 ) ;
#180 = ORIENTED_EDGE ( 'NONE', *, *, #29, .T. ) ;
#181 = DATE_AND_TIME ( #304, #217 ) ;
#182 = DIRECTION ( 'NONE',  ( 1.000000000000000000, 0.000000000000000000, 0.000000000000000000 ) ) ;
#183 = VECTOR ( 'NONE', #283, 1000.000000000000000 ) ;
#184 = EDGE_CURVE ( 'NONE', #138, #268, #56, .T. ) ;
#185 = ORIENTED_EDGE ( 'NONE', *, *, #250, .T. ) ;
#186 = EDGE_CURVE ( 'NONE', #68, #106, #92, .T. ) ;
#187 = CALENDAR_DATE ( 2022, 20, 6 ) ;
#188 = ADVANCED_FACE ( 'NONE', ( #35 ), #234, .F. ) ;
#189 = COORDINATED_UNIVERSAL_TIME_OFFSET ( 1, 0, .AHEAD. ) ;
#190 = FACE_BOUND ( 'NONE', #169, .T. ) ;
#191 = CALENDAR_DATE ( 2022, 20, 6 ) ;
#192 = AXIS2_PLACEMENT_3D ( 'NONE', #102, #152, #256 ) ;
#193 = LOCAL_TIME ( 12, 23, 17.00000000000000000, #249 ) ;
#194 = PRODUCT ( '8a54', '8a54', '', ( #299 ) ) ;
#195 = DIRECTION ( 'NONE',  ( -0.000000000000000000, -0.000000000000000000, -1.000000000000000000 ) ) ;
#196 = DIRECTION ( 'NONE',  ( 1.000000000000000000, 0.000000000000000000, 0.000000000000000000 ) ) ;
#197 = PRODUCT_DEFINITION ( 'NEZNÁMÝ', '', #246, #214 ) ;
#198 = AXIS2_PLACEMENT_3D ( 'NONE', #82, #177, #260 ) ;
#199 = FACE_OUTER_BOUND ( 'NONE', #161, .T. ) ;
#200 = FACE_OUTER_BOUND ( 'NONE', #114, .T. ) ;
#201 = CARTESIAN_POINT ( 'NONE',  ( 0.000000000000000000, 0.000000000000000000, 0.000000000000000000 ) ) ;
#202 = ORIENTED_EDGE ( 'NONE', *, *, #250, .F. ) ;
#203 = VECTOR ( 'NONE', #269, 1000.000000000000000 ) ;
#204 = ORIENTED_EDGE ( 'NONE', *, *, #27, .F. ) ;
#205 = COORDINATED_UNIVERSAL_TIME_OFFSET ( 1, 0, .AHEAD. ) ;
#206 = DIRECTION ( 'NONE',  ( -0.000000000000000000, -0.000000000000000000, -1.000000000000000000 ) ) ;
#207 = CC_DESIGN_PERSON_AND_ORGANIZATION_ASSIGNMENT ( #94, #66, ( #148 ) ) ;
#208 = EDGE_CURVE ( 'NONE', #160, #106, #101, .T. ) ;
#209 = VERTEX_POINT ( 'NONE', #229 ) ;
#210 = EDGE_CURVE ( 'NONE', #62, #293, #140, .T. ) ;
#211 = ORIENTED_EDGE ( 'NONE', *, *, #70, .T. ) ;
#212 = CC_DESIGN_PERSON_AND_ORGANIZATION_ASSIGNMENT ( #243, #69, ( #197 ) ) ;
#213 = COORDINATED_UNIVERSAL_TIME_OFFSET ( 1, 0, .AHEAD. ) ;
#214 = DESIGN_CONTEXT ( 'detailed design', #258, 'design' ) ;
#215 = PERSON_AND_ORGANIZATION ( #11, #301 ) ;
#216 = CIRCLE ( 'NONE', #307, 0.7500000000000001110 ) ;
#217 = LOCAL_TIME ( 12, 23, 17.00000000000000000, #205 ) ;
#218 = ADVANCED_FACE ( 'NONE', ( #96 ), #12, .T. ) ;
#219 = FACE_OUTER_BOUND ( 'NONE', #17, .T. ) ;
#220 = PERSON_AND_ORGANIZATION_ROLE ( 'creator' ) ;
#221 = PRODUCT_DEFINITION_SHAPE ( 'NONE', 'NONE',  #197 ) ;
#222 = ORIENTED_EDGE ( 'NONE', *, *, #184, .F. ) ;
#223 = APPLICATION_CONTEXT ( 'configuration controlled 3d designs of mechanical parts and assemblies' ) ;
#224 = DIRECTION ( 'NONE',  ( -0.000000000000000000, -0.000000000000000000, -1.000000000000000000 ) ) ;
#225 = CALENDAR_DATE ( 2022, 20, 6 ) ;
#226 = CIRCLE ( 'NONE', #43, 1.500000000000000222 ) ;
#227 = DIRECTION ( 'NONE',  ( 1.000000000000000000, 0.000000000000000000, -0.000000000000000000 ) ) ;
#228 = EDGE_CURVE ( 'NONE', #209, #68, #118, .T. ) ;
#229 = CARTESIAN_POINT ( 'NONE',  ( 1.500000000000000222, 1.836970198721030181E-16, 1.500000000000000000 ) ) ;
#230 = DIRECTION ( 'NONE',  ( 1.000000000000000000, 0.000000000000000000, 0.000000000000000000 ) ) ;
#231 = ORIENTED_EDGE ( 'NONE', *, *, #186, .F. ) ;
#232 = PERSON_AND_ORGANIZATION_ROLE ( 'design_owner' ) ;
#233 = EDGE_LOOP ( 'NONE', ( #67, #64, #245, #112 ) ) ;
#234 = TOROIDAL_SURFACE ( 'NONE', #273, 0.9500000000000000666, 0.2000000000000000111 ) ;
#235 = APPROVAL_STATUS ( 'not_yet_approved' ) ;
#236 = DIRECTION ( 'NONE',  ( -1.000000000000000000, 1.224646799147353207E-16, 0.000000000000000000 ) ) ;
#237 = ORIENTED_EDGE ( 'NONE', *, *, #46, .F. ) ;
#238 = MANIFOLD_SOLID_BREP ( 'Zaoblit1', #257 ) ;
#239 = ADVANCED_FACE ( 'NONE', ( #190, #219 ), #7, .T. ) ;
#240 = DIRECTION ( 'NONE',  ( 1.000000000000000000, 0.000000000000000000, 0.000000000000000000 ) ) ;
#241 = CIRCLE ( 'NONE', #125, 0.9500000000000000666 ) ;
#242 = CC_DESIGN_APPROVAL ( #282, ( #148 ) ) ;
#243 = PERSON_AND_ORGANIZATION ( #11, #301 ) ;
#244 = SHAPE_DEFINITION_REPRESENTATION ( #221, #280 ) ;
#245 = ORIENTED_EDGE ( 'NONE', *, *, #27, .T. ) ;
#246 = PRODUCT_DEFINITION_FORMATION_WITH_SPECIFIED_SOURCE ( 'LIBOVOLNÝ', '', #194, .NOT_KNOWN. ) ;
#247 = CALENDAR_DATE ( 2022, 20, 6 ) ;
#248 = CYLINDRICAL_SURFACE ( 'NONE', #134, 0.7500000000000001110 ) ;
#249 = COORDINATED_UNIVERSAL_TIME_OFFSET ( 1, 0, .AHEAD. ) ;
#250 = EDGE_CURVE ( 'NONE', #160, #209, #121, .T. ) ;
#251 = FACE_OUTER_BOUND ( 'NONE', #265, .T. ) ;
#252 = AXIS2_PLACEMENT_3D ( 'NONE', #286, #133, #240 ) ;
#253 = LOCAL_TIME ( 12, 23, 17.00000000000000000, #213 ) ;
#254 = DIRECTION ( 'NONE',  ( 1.000000000000000000, 0.000000000000000000, 0.000000000000000000 ) ) ;
#255 = FACE_OUTER_BOUND ( 'NONE', #60, .T. ) ;
#256 = DIRECTION ( 'NONE',  ( -1.000000000000000000, 0.000000000000000000, 0.000000000000000000 ) ) ;
#257 = CLOSED_SHELL ( 'NONE', ( #142, #157, #218, #89, #239, #290, #285, #162, #188 ) ) ;
#258 = APPLICATION_CONTEXT ( 'configuration controlled 3d designs of mechanical parts and assemblies' ) ;
#259 =( LENGTH_UNIT ( ) NAMED_UNIT ( * ) SI_UNIT ( .MILLI., .METRE. ) );
#260 = DIRECTION ( 'NONE',  ( 1.000000000000000000, 0.000000000000000000, 0.000000000000000000 ) ) ;
#261 = ORIENTED_EDGE ( 'NONE', *, *, #2, .F. ) ;
#262 = CARTESIAN_POINT ( 'NONE',  ( 0.9500000000000000666, 0.000000000000000000, 1.500000000000003553 ) ) ;
#263 = CC_DESIGN_PERSON_AND_ORGANIZATION_ASSIGNMENT ( #302, #232, ( #194 ) ) ;
#264 = AXIS2_PLACEMENT_3D ( 'NONE', #57, #34, #124 ) ;
#265 = EDGE_LOOP ( 'NONE', ( #222, #145, #47, #288 ) ) ;
#266 = ORIENTED_EDGE ( 'NONE', *, *, #2, .T. ) ;
#267 = UNCERTAINTY_MEASURE_WITH_UNIT (LENGTH_MEASURE( 1.000000000000000082E-05 ), #259, 'distance_accuracy_value', 'NONE');
#268 = VERTEX_POINT ( 'NONE', #87 ) ;
#269 = DIRECTION ( 'NONE',  ( -0.000000000000000000, -0.000000000000000000, -1.000000000000000000 ) ) ;
#270 = CC_DESIGN_PERSON_AND_ORGANIZATION_ASSIGNMENT ( #215, #220, ( #246 ) ) ;
#271 = DIRECTION ( 'NONE',  ( -1.000000000000000000, 0.000000000000000000, 0.000000000000000000 ) ) ;
#272 = CARTESIAN_POINT ( 'NONE',  ( 0.000000000000000000, 0.000000000000000000, 101.5000000000000000 ) ) ;
#273 = AXIS2_PLACEMENT_3D ( 'NONE', #274, #58, #10 ) ;
#274 = CARTESIAN_POINT ( 'NONE',  ( 0.000000000000000000, 0.000000000000000000, 1.700000000000007061 ) ) ;
#275 = DIRECTION ( 'NONE',  ( 0.000000000000000000, 0.000000000000000000, 1.000000000000000000 ) ) ;
#276 = APPROVAL ( #235, 'NEURÈENÝ' ) ;
#277 = APPLICATION_PROTOCOL_DEFINITION ( 'international standard', 'config_control_design', 1994, #223 ) ;
#278 = AXIS2_PLACEMENT_3D ( 'NONE', #37, #291, #254 ) ;
#279 = AXIS2_PLACEMENT_3D ( 'NONE', #99, #294, #76 ) ;
#280 = ADVANCED_BREP_SHAPE_REPRESENTATION ( '8a54', ( #238, #26 ), #108 ) ;
#281 = ORIENTED_EDGE ( 'NONE', *, *, #29, .F. ) ;
#282 = APPROVAL ( #100, 'NEURÈENÝ' ) ;
#283 = DIRECTION ( 'NONE',  ( -0.000000000000000000, -0.000000000000000000, -1.000000000000000000 ) ) ;
#284 = APPROVAL_DATE_TIME ( #181, #276 ) ;
#285 = ADVANCED_FACE ( 'NONE', ( #200 ), #63, .T. ) ;
#286 = CARTESIAN_POINT ( 'NONE',  ( 0.000000000000000000, 0.000000000000000000, 1.500000000000000000 ) ) ;
#287 = VECTOR ( 'NONE', #195, 1000.000000000000000 ) ;
#288 = ORIENTED_EDGE ( 'NONE', *, *, #127, .F. ) ;
#289 = PERSON_AND_ORGANIZATION_ROLE ( 'design_supplier' ) ;
#290 = ADVANCED_FACE ( 'NONE', ( #154 ), #14, .F. ) ;
#291 = DIRECTION ( 'NONE',  ( 0.000000000000000000, 0.000000000000000000, 1.000000000000000000 ) ) ;
#292 = APPROVAL_STATUS ( 'not_yet_approved' ) ;
#293 = VERTEX_POINT ( 'NONE', #61 ) ;
#294 = DIRECTION ( 'NONE',  ( 0.000000000000000000, 0.000000000000000000, 1.000000000000000000 ) ) ;
#295 = DIRECTION ( 'NONE',  ( 1.000000000000000000, 0.000000000000000000, 0.000000000000000000 ) ) ;
#296 = DIRECTION ( 'NONE',  ( 1.000000000000000000, 0.000000000000000000, 0.000000000000000000 ) ) ;
#297 = DIRECTION ( 'NONE',  ( 0.000000000000000000, 0.000000000000000000, 1.000000000000000000 ) ) ;
#298 = DIRECTION ( 'NONE',  ( -0.000000000000000000, -0.000000000000000000, -1.000000000000000000 ) ) ;
#299 = MECHANICAL_CONTEXT ( 'NONE', #223, 'mechanical' ) ;
#300 = DIRECTION ( 'NONE',  ( 1.000000000000000000, 0.000000000000000000, 0.000000000000000000 ) ) ;
#301 = ORGANIZATION ( 'NEURÈENÝ', 'NEURÈENÝ', '' ) ;
#302 = PERSON_AND_ORGANIZATION ( #11, #301 ) ;
#303 = CARTESIAN_POINT ( 'NONE',  ( -0.9500000000000000666, 1.163414459189985682E-16, 1.500000000000003553 ) ) ;
#304 = CALENDAR_DATE ( 2022, 20, 6 ) ;
#305 = ORIENTED_EDGE ( 'NONE', *, *, #210, .F. ) ;
#306 = ORIENTED_EDGE ( 'NONE', *, *, #208, .F. ) ;
#307 = AXIS2_PLACEMENT_3D ( 'NONE', #54, #297, #296 ) ;
ENDSEC;
END-ISO-10303-21;
