ISO-10303-21;
HEADER;
FILE_DESCRIPTION (( 'STEP AP203' ),
    '1' );
FILE_NAME ('e3ec.STEP',
    '2022-06-20T09:32:47',
    ( '' ),
    ( '' ),
    'SwSTEP 2.0',
    'SolidWorks 2019',
    '' );
FILE_SCHEMA (( 'CONFIG_CONTROL_DESIGN' ));
ENDSEC;

DATA;
#1 = PERSON_AND_ORGANIZATION ( #82, #253 ) ;
#2 = EDGE_LOOP ( 'NONE', ( #216, #139, #287, #221 ) ) ;
#3 = ORIENTED_EDGE ( 'NONE', *, *, #55, .F. ) ;
#4 = CYLINDRICAL_SURFACE ( 'NONE', #112, 6.000000000000000888 ) ;
#5 = PRODUCT_RELATED_PRODUCT_CATEGORY ( 'detail', '', ( #278 ) ) ;
#6 = AXIS2_PLACEMENT_3D ( 'NONE', #180, #223, #254 ) ;
#7 = DIRECTION ( 'NONE',  ( -0.000000000000000000, -0.000000000000000000, -1.000000000000000000 ) ) ;
#8 = DIRECTION ( 'NONE',  ( -0.000000000000000000, -0.000000000000000000, -1.000000000000000000 ) ) ;
#9 = VERTEX_POINT ( 'NONE', #122 ) ;
#10 = DIRECTION ( 'NONE',  ( 0.000000000000000000, -1.000000000000000000, 0.000000000000000000 ) ) ;
#11 = CIRCLE ( 'NONE', #198, 6.000000000000000888 ) ;
#12 = CARTESIAN_POINT ( 'NONE',  ( 0.000000000000000000, 0.000000000000000000, 7.000000000000000000 ) ) ;
#13 = PLANE ( 'NONE',  #265 ) ;
#14 = EDGE_CURVE ( 'NONE', #237, #261, #102, .T. ) ;
#15 = DIRECTION ( 'NONE',  ( 0.000000000000000000, 0.000000000000000000, 1.000000000000000000 ) ) ;
#16 = DIRECTION ( 'NONE',  ( -1.000000000000000000, 0.000000000000000000, 0.000000000000000000 ) ) ;
#17 = AXIS2_PLACEMENT_3D ( 'NONE', #203, #281, #103 ) ;
#18 = PERSON_AND_ORGANIZATION ( #82, #253 ) ;
#19 = ORIENTED_EDGE ( 'NONE', *, *, #94, .F. ) ;
#20 = DATE_TIME_ROLE ( 'classification_date' ) ;
#21 = ORIENTED_EDGE ( 'NONE', *, *, #89, .F. ) ;
#22 = EDGE_CURVE ( 'NONE', #141, #237, #298, .T. ) ;
#23 = APPROVAL_DATE_TIME ( #108, #146 ) ;
#24 = ORIENTED_EDGE ( 'NONE', *, *, #134, .T. ) ;
#25 = VECTOR ( 'NONE', #273, 1000.000000000000000 ) ;
#26 = ORIENTED_EDGE ( 'NONE', *, *, #94, .T. ) ;
#27 = EDGE_LOOP ( 'NONE', ( #45, #24 ) ) ;
#28 = CC_DESIGN_DATE_AND_TIME_ASSIGNMENT ( #208, #257, ( #202 ) ) ;
#29 = ORIENTED_EDGE ( 'NONE', *, *, #125, .T. ) ;
#30 = CIRCLE ( 'NONE', #204, 9.000000000000000000 ) ;
#31 = CARTESIAN_POINT ( 'NONE',  ( 0.000000000000000000, 0.000000000000000000, 322.0000000000000000 ) ) ;
#32 = EDGE_LOOP ( 'NONE', ( #263, #213 ) ) ;
#33 = CARTESIAN_POINT ( 'NONE',  ( 6.200000000000001066, 0.000000000000000000, 7.199999999999984190 ) ) ;
#34 = DIRECTION ( 'NONE',  ( 0.000000000000000000, 0.000000000000000000, 1.000000000000000000 ) ) ;
#35 = CIRCLE ( 'NONE', #179, 6.200000000000001066 ) ;
#36 = FACE_OUTER_BOUND ( 'NONE', #121, .T. ) ;
#37 = CC_DESIGN_DATE_AND_TIME_ASSIGNMENT ( #87, #20, ( #157 ) ) ;
#38 = CYLINDRICAL_SURFACE ( 'NONE', #17, 9.000000000000000000 ) ;
#39 =( GEOMETRIC_REPRESENTATION_CONTEXT ( 3 ) GLOBAL_UNCERTAINTY_ASSIGNED_CONTEXT ( ( #234 ) ) GLOBAL_UNIT_ASSIGNED_CONTEXT ( ( #248, #67, #191 ) ) REPRESENTATION_CONTEXT ( 'NONE', 'WORKASPACE' ) );
#40 = DIRECTION ( 'NONE',  ( 1.000000000000000000, 0.000000000000000000, 0.000000000000000000 ) ) ;
#41 = APPLICATION_PROTOCOL_DEFINITION ( 'international standard', 'config_control_design', 1994, #123 ) ;
#42 = SECURITY_CLASSIFICATION_LEVEL ( 'unclassified' ) ;
#43 = EDGE_CURVE ( 'NONE', #141, #9, #276, .T. ) ;
#44 = EDGE_LOOP ( 'NONE', ( #21, #166, #26, #48 ) ) ;
#45 = ORIENTED_EDGE ( 'NONE', *, *, #268, .T. ) ;
#46 = EDGE_CURVE ( 'NONE', #9, #261, #95, .T. ) ;
#47 = PERSON_AND_ORGANIZATION_ROLE ( 'design_owner' ) ;
#48 = ORIENTED_EDGE ( 'NONE', *, *, #163, .T. ) ;
#49 = AXIS2_PLACEMENT_3D ( 'NONE', #104, #128, #40 ) ;
#50 = DIRECTION ( 'NONE',  ( -1.000000000000000000, 0.000000000000000000, 0.000000000000000000 ) ) ;
#51 = FACE_OUTER_BOUND ( 'NONE', #190, .T. ) ;
#52 = DIRECTION ( 'NONE',  ( 0.000000000000000000, 0.000000000000000000, 1.000000000000000000 ) ) ;
#53 = CC_DESIGN_APPROVAL ( #212, ( #202 ) ) ;
#54 = CARTESIAN_POINT ( 'NONE',  ( 0.000000000000000000, 0.000000000000000000, 322.0000000000000000 ) ) ;
#55 = EDGE_CURVE ( 'NONE', #65, #215, #160, .T. ) ;
#56 = FACE_OUTER_BOUND ( 'NONE', #145, .T. ) ;
#57 = DIRECTION ( 'NONE',  ( 0.000000000000000000, 0.000000000000000000, 1.000000000000000000 ) ) ;
#58 = DIRECTION ( 'NONE',  ( 1.000000000000000000, 0.000000000000000000, 0.000000000000000000 ) ) ;
#59 = AXIS2_PLACEMENT_3D ( 'NONE', #228, #252, #58 ) ;
#60 = ADVANCED_FACE ( 'NONE', ( #51 ), #150, .T. ) ;
#61 = DIRECTION ( 'NONE',  ( 0.000000000000000000, 0.000000000000000000, 1.000000000000000000 ) ) ;
#62 = CARTESIAN_POINT ( 'NONE',  ( 6.000000000000000888, 7.347880794884120722E-16, 7.199999999999984190 ) ) ;
#63 = LOCAL_TIME ( 11, 32, 47.00000000000000000, #88 ) ;
#64 = COORDINATED_UNIVERSAL_TIME_OFFSET ( 1, 0, .AHEAD. ) ;
#65 = VERTEX_POINT ( 'NONE', #290 ) ;
#66 = APPROVAL_PERSON_ORGANIZATION ( #18, #113, #307 ) ;
#67 =( NAMED_UNIT ( * ) PLANE_ANGLE_UNIT ( ) SI_UNIT ( $, .RADIAN. ) );
#68 = ADVANCED_FACE ( 'NONE', ( #56 ), #4, .T. ) ;
#69 = ORIENTED_EDGE ( 'NONE', *, *, #167, .F. ) ;
#70 = CALENDAR_DATE ( 2022, 20, 6 ) ;
#71 = DIRECTION ( 'NONE',  ( 1.000000000000000000, 0.000000000000000000, 0.000000000000000000 ) ) ;
#72 = CIRCLE ( 'NONE', #250, 0.1999999999999996503 ) ;
#73 = LINE ( 'NONE', #172, #224 ) ;
#74 = VERTEX_POINT ( 'NONE', #126 ) ;
#75 = EDGE_CURVE ( 'NONE', #9, #141, #11, .T. ) ;
#76 = DIRECTION ( 'NONE',  ( 0.000000000000000000, 0.000000000000000000, 1.000000000000000000 ) ) ;
#77 = AXIS2_PLACEMENT_3D ( 'NONE', #85, #225, #16 ) ;
#78 = EDGE_LOOP ( 'NONE', ( #93, #3 ) ) ;
#79 = FACE_OUTER_BOUND ( 'NONE', #285, .T. ) ;
#80 = CC_DESIGN_PERSON_AND_ORGANIZATION_ASSIGNMENT ( #140, #256, ( #202 ) ) ;
#81 = CARTESIAN_POINT ( 'NONE',  ( 0.000000000000000000, 0.000000000000000000, 0.000000000000000000 ) ) ;
#82 = PERSON ( 'NEURÈENÝ', 'NEURÈENÝ', 'NEURÈENÝ', ('NEURÈENÝ'), ('NEURÈENÝ'), ('NEURÈENÝ') ) ;
#83 = CARTESIAN_POINT ( 'NONE',  ( 0.000000000000000000, 0.000000000000000000, 7.000000000000000000 ) ) ;
#84 = CIRCLE ( 'NONE', #49, 9.000000000000000000 ) ;
#85 = CARTESIAN_POINT ( 'NONE',  ( 0.000000000000000000, 0.000000000000000000, 322.0000000000000000 ) ) ;
#86 = PERSON_AND_ORGANIZATION ( #82, #253 ) ;
#87 = DATE_AND_TIME ( #159, #201 ) ;
#88 = COORDINATED_UNIVERSAL_TIME_OFFSET ( 1, 0, .AHEAD. ) ;
#89 = EDGE_CURVE ( 'NONE', #91, #65, #266, .T. ) ;
#90 = CC_DESIGN_APPROVAL ( #113, ( #157 ) ) ;
#91 = VERTEX_POINT ( 'NONE', #293 ) ;
#92 = PERSON_AND_ORGANIZATION_ROLE ( 'classification_officer' ) ;
#93 = ORIENTED_EDGE ( 'NONE', *, *, #163, .F. ) ;
#94 = EDGE_CURVE ( 'NONE', #258, #215, #73, .T. ) ;
#95 = LINE ( 'NONE', #196, #25 ) ;
#96 = ORIENTED_EDGE ( 'NONE', *, *, #125, .F. ) ;
#97 = AXIS2_PLACEMENT_3D ( 'NONE', #174, #175, #71 ) ;
#98 = DIRECTION ( 'NONE',  ( 1.000000000000000000, 0.000000000000000000, 0.000000000000000000 ) ) ;
#99 = ADVANCED_FACE ( 'NONE', ( #243 ), #294, .T. ) ;
#100 = ORIENTED_EDGE ( 'NONE', *, *, #55, .T. ) ;
#101 = ORIENTED_EDGE ( 'NONE', *, *, #75, .F. ) ;
#102 = CIRCLE ( 'NONE', #97, 6.000000000000000888 ) ;
#103 = DIRECTION ( 'NONE',  ( -1.000000000000000000, 0.000000000000000000, 0.000000000000000000 ) ) ;
#104 = CARTESIAN_POINT ( 'NONE',  ( 0.000000000000000000, 0.000000000000000000, 7.000000000000000000 ) ) ;
#105 = CARTESIAN_POINT ( 'NONE',  ( 6.000000000000000888, 7.347880794884120722E-16, 322.0000000000000000 ) ) ;
#106 = AXIS2_PLACEMENT_3D ( 'NONE', #118, #161, #162 ) ;
#107 = CIRCLE ( 'NONE', #186, 0.1999999999999996503 ) ;
#108 = DATE_AND_TIME ( #238, #169 ) ;
#109 = ORIENTED_EDGE ( 'NONE', *, *, #43, .T. ) ;
#110 = APPROVAL_ROLE ( '' ) ;
#111 = ORIENTED_EDGE ( 'NONE', *, *, #210, .F. ) ;
#112 = AXIS2_PLACEMENT_3D ( 'NONE', #31, #120, #50 ) ;
#113 = APPROVAL ( #114, 'NEURÈENÝ' ) ;
#114 = APPROVAL_STATUS ( 'not_yet_approved' ) ;
#115 = DESIGN_CONTEXT ( 'detailed design', #123, 'design' ) ;
#116 = APPLICATION_PROTOCOL_DEFINITION ( 'international standard', 'config_control_design', 1994, #229 ) ;
#117 = ORIENTED_EDGE ( 'NONE', *, *, #22, .F. ) ;
#118 = CARTESIAN_POINT ( 'NONE',  ( 0.000000000000000000, 0.000000000000000000, 0.000000000000000000 ) ) ;
#119 = CLOSED_SHELL ( 'NONE', ( #187, #280, #235, #99, #217, #181, #68, #60, #295 ) ) ;
#120 = DIRECTION ( 'NONE',  ( -0.000000000000000000, -0.000000000000000000, -1.000000000000000000 ) ) ;
#121 = EDGE_LOOP ( 'NONE', ( #192, #127, #100, #19 ) ) ;
#122 = CARTESIAN_POINT ( 'NONE',  ( -6.000000000000000888, 0.000000000000000000, 322.0000000000000000 ) ) ;
#123 = APPLICATION_CONTEXT ( 'configuration controlled 3d designs of mechanical parts and assemblies' ) ;
#124 = AXIS2_PLACEMENT_3D ( 'NONE', #296, #52, #98 ) ;
#125 = EDGE_CURVE ( 'NONE', #261, #288, #72, .T. ) ;
#126 = CARTESIAN_POINT ( 'NONE',  ( 6.200000000000001066, 0.000000000000000000, 6.999999999999992006 ) ) ;
#127 = ORIENTED_EDGE ( 'NONE', *, *, #89, .T. ) ;
#128 = DIRECTION ( 'NONE',  ( 0.000000000000000000, 0.000000000000000000, 1.000000000000000000 ) ) ;
#129 = CIRCLE ( 'NONE', #59, 6.000000000000000888 ) ;
#130 = CARTESIAN_POINT ( 'NONE',  ( -9.000000000000000000, 0.000000000000000000, 7.000000000000000000 ) ) ;
#131 = FACE_OUTER_BOUND ( 'NONE', #78, .T. ) ;
#132 = CYLINDRICAL_SURFACE ( 'NONE', #77, 6.000000000000000888 ) ;
#133 = APPROVAL_PERSON_ORGANIZATION ( #306, #146, #305 ) ;
#134 = EDGE_CURVE ( 'NONE', #91, #258, #84, .T. ) ;
#135 = DIRECTION ( 'NONE',  ( 1.000000000000000000, 0.000000000000000000, 0.000000000000000000 ) ) ;
#136 = APPROVAL_PERSON_ORGANIZATION ( #138, #212, #110 ) ;
#137 = EDGE_CURVE ( 'NONE', #261, #237, #129, .T. ) ;
#138 = PERSON_AND_ORGANIZATION ( #82, #253 ) ;
#139 = ORIENTED_EDGE ( 'NONE', *, *, #22, .T. ) ;
#140 = PERSON_AND_ORGANIZATION ( #82, #253 ) ;
#141 = VERTEX_POINT ( 'NONE', #105 ) ;
#142 = APPROVAL_DATE_TIME ( #240, #113 ) ;
#143 = TOROIDAL_SURFACE ( 'NONE', #6, 6.200000000000001066, 0.2000000000000000111 ) ;
#144 = DIRECTION ( 'NONE',  ( -0.000000000000000000, -0.000000000000000000, -1.000000000000000000 ) ) ;
#145 = EDGE_LOOP ( 'NONE', ( #117, #101, #148, #164 ) ) ;
#146 = APPROVAL ( #286, 'NEURÈENÝ' ) ;
#147 = MANIFOLD_SOLID_BREP ( 'Zaoblit1', #119 ) ;
#148 = ORIENTED_EDGE ( 'NONE', *, *, #46, .T. ) ;
#149 = DIRECTION ( 'NONE',  ( 0.000000000000000000, 0.000000000000000000, 1.000000000000000000 ) ) ;
#150 = PLANE ( 'NONE',  #302 ) ;
#151 = LOCAL_TIME ( 11, 32, 47.00000000000000000, #188 ) ;
#152 = DIRECTION ( 'NONE',  ( -1.000000000000000000, 1.224646799147353454E-16, 0.000000000000000000 ) ) ;
#153 = CIRCLE ( 'NONE', #233, 6.200000000000001066 ) ;
#154 = CARTESIAN_POINT ( 'NONE',  ( -6.200000000000001066, 7.592810154713590821E-16, 7.199999999999984190 ) ) ;
#155 = DIRECTION ( 'NONE',  ( 1.000000000000000000, 0.000000000000000000, 0.000000000000000000 ) ) ;
#156 = CARTESIAN_POINT ( 'NONE',  ( -6.200000000000001066, 7.592810154713590821E-16, 6.999999999999992006 ) ) ;
#157 = SECURITY_CLASSIFICATION ( '', '', #42 ) ;
#158 = PRODUCT_DEFINITION_SHAPE ( 'NONE', 'NONE',  #202 ) ;
#159 = CALENDAR_DATE ( 2022, 20, 6 ) ;
#160 = CIRCLE ( 'NONE', #124, 9.000000000000000000 ) ;
#161 = DIRECTION ( 'NONE',  ( 0.000000000000000000, 0.000000000000000000, 1.000000000000000000 ) ) ;
#162 = DIRECTION ( 'NONE',  ( 1.000000000000000000, 0.000000000000000000, 0.000000000000000000 ) ) ;
#163 = EDGE_CURVE ( 'NONE', #215, #65, #241, .T. ) ;
#164 = ORIENTED_EDGE ( 'NONE', *, *, #137, .T. ) ;
#165 = MECHANICAL_CONTEXT ( 'NONE', #229, 'mechanical' ) ;
#166 = ORIENTED_EDGE ( 'NONE', *, *, #268, .F. ) ;
#167 = EDGE_CURVE ( 'NONE', #288, #74, #153, .T. ) ;
#168 = SHAPE_DEFINITION_REPRESENTATION ( #158, #184 ) ;
#169 = LOCAL_TIME ( 11, 32, 47.00000000000000000, #185 ) ;
#170 = DIRECTION ( 'NONE',  ( 1.000000000000000000, 0.000000000000000000, 0.000000000000000000 ) ) ;
#171 = VECTOR ( 'NONE', #144, 1000.000000000000000 ) ;
#172 = CARTESIAN_POINT ( 'NONE',  ( -9.000000000000000000, 0.000000000000000000, 7.000000000000000000 ) ) ;
#173 = CC_DESIGN_PERSON_AND_ORGANIZATION_ASSIGNMENT ( #1, #236, ( #260 ) ) ;
#174 = CARTESIAN_POINT ( 'NONE',  ( 0.000000000000000000, 0.000000000000000000, 7.199999999999984190 ) ) ;
#175 = DIRECTION ( 'NONE',  ( 0.000000000000000000, 0.000000000000000000, 1.000000000000000000 ) ) ;
#176 = CARTESIAN_POINT ( 'NONE',  ( 6.000000000000000888, 7.347880794884120722E-16, 322.0000000000000000 ) ) ;
#177 = FACE_OUTER_BOUND ( 'NONE', #2, .T. ) ;
#178 = DIRECTION ( 'NONE',  ( 1.000000000000000000, 0.000000000000000000, -0.000000000000000000 ) ) ;
#179 = AXIS2_PLACEMENT_3D ( 'NONE', #83, #230, #199 ) ;
#180 = CARTESIAN_POINT ( 'NONE',  ( 0.000000000000000000, 0.000000000000000000, 7.199999999999984190 ) ) ;
#181 = ADVANCED_FACE ( 'NONE', ( #131 ), #249, .F. ) ;
#182 = CARTESIAN_POINT ( 'NONE',  ( 0.000000000000000000, 0.000000000000000000, 7.000000000000000000 ) ) ;
#183 = CARTESIAN_POINT ( 'NONE',  ( 0.000000000000000000, 0.000000000000000000, 7.199999999999984190 ) ) ;
#184 = ADVANCED_BREP_SHAPE_REPRESENTATION ( 'e3ec', ( #147, #106 ), #39 ) ;
#185 = COORDINATED_UNIVERSAL_TIME_OFFSET ( 1, 0, .AHEAD. ) ;
#186 = AXIS2_PLACEMENT_3D ( 'NONE', #33, #10, #205 ) ;
#187 = ADVANCED_FACE ( 'NONE', ( #79 ), #143, .F. ) ;
#188 = COORDINATED_UNIVERSAL_TIME_OFFSET ( 1, 0, .AHEAD. ) ;
#189 = CALENDAR_DATE ( 2022, 20, 6 ) ;
#190 = EDGE_LOOP ( 'NONE', ( #219, #109 ) ) ;
#191 =( NAMED_UNIT ( * ) SI_UNIT ( $, .STERADIAN. ) SOLID_ANGLE_UNIT ( ) );
#192 = ORIENTED_EDGE ( 'NONE', *, *, #134, .F. ) ;
#193 = DIRECTION ( 'NONE',  ( 1.000000000000000000, 0.000000000000000000, -0.000000000000000000 ) ) ;
#194 = CARTESIAN_POINT ( 'NONE',  ( 9.000000000000000000, 1.102182119232617714E-15, 7.000000000000000000 ) ) ;
#195 = CARTESIAN_POINT ( 'NONE',  ( 0.000000000000000000, 0.000000000000000000, 322.0000000000000000 ) ) ;
#196 = CARTESIAN_POINT ( 'NONE',  ( -6.000000000000000888, 0.000000000000000000, 322.0000000000000000 ) ) ;
#197 = EDGE_LOOP ( 'NONE', ( #96, #222, #209, #69 ) ) ;
#198 = AXIS2_PLACEMENT_3D ( 'NONE', #195, #76, #170 ) ;
#199 = DIRECTION ( 'NONE',  ( 1.000000000000000000, 0.000000000000000000, 0.000000000000000000 ) ) ;
#200 = DIRECTION ( 'NONE',  ( 1.224646799147353207E-16, 1.000000000000000000, -0.000000000000000000 ) ) ;
#201 = LOCAL_TIME ( 11, 32, 47.00000000000000000, #289 ) ;
#202 = PRODUCT_DEFINITION ( 'NEZNÁMÝ', '', #260, #115 ) ;
#203 = CARTESIAN_POINT ( 'NONE',  ( 0.000000000000000000, 0.000000000000000000, 7.000000000000000000 ) ) ;
#204 = AXIS2_PLACEMENT_3D ( 'NONE', #182, #206, #299 ) ;
#205 = DIRECTION ( 'NONE',  ( 0.000000000000000000, 0.000000000000000000, -1.000000000000000000 ) ) ;
#206 = DIRECTION ( 'NONE',  ( 0.000000000000000000, 0.000000000000000000, 1.000000000000000000 ) ) ;
#207 = CALENDAR_DATE ( 2022, 20, 6 ) ;
#208 = DATE_AND_TIME ( #189, #151 ) ;
#209 = ORIENTED_EDGE ( 'NONE', *, *, #210, .T. ) ;
#210 = EDGE_CURVE ( 'NONE', #237, #74, #107, .T. ) ;
#211 = APPROVAL_DATE_TIME ( #232, #212 ) ;
#212 = APPROVAL ( #259, 'NEURÈENÝ' ) ;
#213 = ORIENTED_EDGE ( 'NONE', *, *, #167, .T. ) ;
#214 = AXIS2_PLACEMENT_3D ( 'NONE', #54, #149, #247 ) ;
#215 = VERTEX_POINT ( 'NONE', #274 ) ;
#216 = ORIENTED_EDGE ( 'NONE', *, *, #43, .F. ) ;
#217 = ADVANCED_FACE ( 'NONE', ( #227, #251 ), #13, .T. ) ;
#218 = ORIENTED_EDGE ( 'NONE', *, *, #137, .F. ) ;
#219 = ORIENTED_EDGE ( 'NONE', *, *, #75, .T. ) ;
#220 = AXIS2_PLACEMENT_3D ( 'NONE', #81, #15, #178 ) ;
#221 = ORIENTED_EDGE ( 'NONE', *, *, #46, .F. ) ;
#222 = ORIENTED_EDGE ( 'NONE', *, *, #14, .F. ) ;
#223 = DIRECTION ( 'NONE',  ( 0.000000000000000000, 0.000000000000000000, 1.000000000000000000 ) ) ;
#224 = VECTOR ( 'NONE', #267, 1000.000000000000000 ) ;
#225 = DIRECTION ( 'NONE',  ( -0.000000000000000000, -0.000000000000000000, -1.000000000000000000 ) ) ;
#226 = CC_DESIGN_PERSON_AND_ORGANIZATION_ASSIGNMENT ( #231, #92, ( #157 ) ) ;
#227 = FACE_BOUND ( 'NONE', #32, .T. ) ;
#228 = CARTESIAN_POINT ( 'NONE',  ( 0.000000000000000000, 0.000000000000000000, 7.199999999999984190 ) ) ;
#229 = APPLICATION_CONTEXT ( 'configuration controlled 3d designs of mechanical parts and assemblies' ) ;
#230 = DIRECTION ( 'NONE',  ( -0.000000000000000000, -0.000000000000000000, -1.000000000000000000 ) ) ;
#231 = PERSON_AND_ORGANIZATION ( #82, #253 ) ;
#232 = DATE_AND_TIME ( #207, #291 ) ;
#233 = AXIS2_PLACEMENT_3D ( 'NONE', #12, #300, #135 ) ;
#234 = UNCERTAINTY_MEASURE_WITH_UNIT (LENGTH_MEASURE( 1.000000000000000082E-05 ), #248, 'distance_accuracy_value', 'NONE');
#235 = ADVANCED_FACE ( 'NONE', ( #36 ), #38, .T. ) ;
#236 = PERSON_AND_ORGANIZATION_ROLE ( 'design_supplier' ) ;
#237 = VERTEX_POINT ( 'NONE', #62 ) ;
#238 = CALENDAR_DATE ( 2022, 20, 6 ) ;
#239 = ORIENTED_EDGE ( 'NONE', *, *, #245, .F. ) ;
#240 = DATE_AND_TIME ( #70, #63 ) ;
#241 = CIRCLE ( 'NONE', #292, 9.000000000000000000 ) ;
#242 = DIRECTION ( 'NONE',  ( 0.000000000000000000, 0.000000000000000000, 1.000000000000000000 ) ) ;
#243 = FACE_OUTER_BOUND ( 'NONE', #44, .T. ) ;
#244 = CARTESIAN_POINT ( 'NONE',  ( 0.000000000000000000, 0.000000000000000000, 322.0000000000000000 ) ) ;
#245 = EDGE_CURVE ( 'NONE', #74, #288, #35, .T. ) ;
#246 = TOROIDAL_SURFACE ( 'NONE', #255, 6.200000000000001066, 0.2000000000000000111 ) ;
#247 = DIRECTION ( 'NONE',  ( 1.000000000000000000, 0.000000000000000000, 0.000000000000000000 ) ) ;
#248 =( LENGTH_UNIT ( ) NAMED_UNIT ( * ) SI_UNIT ( .MILLI., .METRE. ) );
#249 = PLANE ( 'NONE',  #220 ) ;
#250 = AXIS2_PLACEMENT_3D ( 'NONE', #154, #200, #152 ) ;
#251 = FACE_OUTER_BOUND ( 'NONE', #27, .T. ) ;
#252 = DIRECTION ( 'NONE',  ( 0.000000000000000000, 0.000000000000000000, 1.000000000000000000 ) ) ;
#253 = ORGANIZATION ( 'NEURÈENÝ', 'NEURÈENÝ', '' ) ;
#254 = DIRECTION ( 'NONE',  ( 1.000000000000000000, 0.000000000000000000, 0.000000000000000000 ) ) ;
#255 = AXIS2_PLACEMENT_3D ( 'NONE', #183, #61, #155 ) ;
#256 = PERSON_AND_ORGANIZATION_ROLE ( 'creator' ) ;
#257 = DATE_TIME_ROLE ( 'creation_date' ) ;
#258 = VERTEX_POINT ( 'NONE', #130 ) ;
#259 = APPROVAL_STATUS ( 'not_yet_approved' ) ;
#260 = PRODUCT_DEFINITION_FORMATION_WITH_SPECIFIED_SOURCE ( 'LIBOVOLNÝ', '', #278, .NOT_KNOWN. ) ;
#261 = VERTEX_POINT ( 'NONE', #303 ) ;
#262 = AXIS2_PLACEMENT_3D ( 'NONE', #269, #8, #272 ) ;
#263 = ORIENTED_EDGE ( 'NONE', *, *, #245, .T. ) ;
#264 = PERSON_AND_ORGANIZATION ( #82, #253 ) ;
#265 = AXIS2_PLACEMENT_3D ( 'NONE', #304, #57, #275 ) ;
#266 = LINE ( 'NONE', #194, #171 ) ;
#267 = DIRECTION ( 'NONE',  ( -0.000000000000000000, -0.000000000000000000, -1.000000000000000000 ) ) ;
#268 = EDGE_CURVE ( 'NONE', #258, #91, #30, .T. ) ;
#269 = CARTESIAN_POINT ( 'NONE',  ( 0.000000000000000000, 0.000000000000000000, 7.000000000000000000 ) ) ;
#270 = CC_DESIGN_SECURITY_CLASSIFICATION ( #157, ( #260 ) ) ;
#271 = CC_DESIGN_PERSON_AND_ORGANIZATION_ASSIGNMENT ( #264, #47, ( #278 ) ) ;
#272 = DIRECTION ( 'NONE',  ( -1.000000000000000000, 0.000000000000000000, 0.000000000000000000 ) ) ;
#273 = DIRECTION ( 'NONE',  ( -0.000000000000000000, -0.000000000000000000, -1.000000000000000000 ) ) ;
#274 = CARTESIAN_POINT ( 'NONE',  ( -9.000000000000000000, 0.000000000000000000, 0.000000000000000000 ) ) ;
#275 = DIRECTION ( 'NONE',  ( 1.000000000000000000, 0.000000000000000000, -0.000000000000000000 ) ) ;
#276 = CIRCLE ( 'NONE', #214, 6.000000000000000888 ) ;
#277 = FACE_OUTER_BOUND ( 'NONE', #197, .T. ) ;
#278 = PRODUCT ( 'e3ec', 'e3ec', '', ( #165 ) ) ;
#279 = CARTESIAN_POINT ( 'NONE',  ( 0.000000000000000000, 0.000000000000000000, 0.000000000000000000 ) ) ;
#280 = ADVANCED_FACE ( 'NONE', ( #177 ), #132, .T. ) ;
#281 = DIRECTION ( 'NONE',  ( -0.000000000000000000, -0.000000000000000000, -1.000000000000000000 ) ) ;
#282 = VECTOR ( 'NONE', #7, 1000.000000000000000 ) ;
#283 = PERSON_AND_ORGANIZATION_ROLE ( 'creator' ) ;
#284 = CC_DESIGN_PERSON_AND_ORGANIZATION_ASSIGNMENT ( #86, #283, ( #260 ) ) ;
#285 = EDGE_LOOP ( 'NONE', ( #218, #29, #239, #111 ) ) ;
#286 = APPROVAL_STATUS ( 'not_yet_approved' ) ;
#287 = ORIENTED_EDGE ( 'NONE', *, *, #14, .T. ) ;
#288 = VERTEX_POINT ( 'NONE', #156 ) ;
#289 = COORDINATED_UNIVERSAL_TIME_OFFSET ( 1, 0, .AHEAD. ) ;
#290 = CARTESIAN_POINT ( 'NONE',  ( 9.000000000000000000, 1.102182119232617714E-15, 0.000000000000000000 ) ) ;
#291 = LOCAL_TIME ( 11, 32, 47.00000000000000000, #64 ) ;
#292 = AXIS2_PLACEMENT_3D ( 'NONE', #279, #34, #301 ) ;
#293 = CARTESIAN_POINT ( 'NONE',  ( 9.000000000000000000, 1.102182119232617714E-15, 7.000000000000000000 ) ) ;
#294 = CYLINDRICAL_SURFACE ( 'NONE', #262, 9.000000000000000000 ) ;
#295 = ADVANCED_FACE ( 'NONE', ( #277 ), #246, .F. ) ;
#296 = CARTESIAN_POINT ( 'NONE',  ( 0.000000000000000000, 0.000000000000000000, 0.000000000000000000 ) ) ;
#297 = CC_DESIGN_APPROVAL ( #146, ( #260 ) ) ;
#298 = LINE ( 'NONE', #176, #282 ) ;
#299 = DIRECTION ( 'NONE',  ( 1.000000000000000000, 0.000000000000000000, 0.000000000000000000 ) ) ;
#300 = DIRECTION ( 'NONE',  ( -0.000000000000000000, -0.000000000000000000, -1.000000000000000000 ) ) ;
#301 = DIRECTION ( 'NONE',  ( 1.000000000000000000, 0.000000000000000000, 0.000000000000000000 ) ) ;
#302 = AXIS2_PLACEMENT_3D ( 'NONE', #244, #242, #193 ) ;
#303 = CARTESIAN_POINT ( 'NONE',  ( -6.000000000000000888, 0.000000000000000000, 7.199999999999984190 ) ) ;
#304 = CARTESIAN_POINT ( 'NONE',  ( 0.000000000000000000, 0.000000000000000000, 7.000000000000000000 ) ) ;
#305 = APPROVAL_ROLE ( '' ) ;
#306 = PERSON_AND_ORGANIZATION ( #82, #253 ) ;
#307 = APPROVAL_ROLE ( '' ) ;
ENDSEC;
END-ISO-10303-21;
