ISO-10303-21;
HEADER;
FILE_DESCRIPTION (( 'STEP AP203' ),
    '1' );
FILE_NAME ('26c1.STEP',
    '2022-06-20T10:30:18',
    ( '' ),
    ( '' ),
    'SwSTEP 2.0',
    'SolidWorks 2019',
    '' );
FILE_SCHEMA (( 'CONFIG_CONTROL_DESIGN' ));
ENDSEC;

DATA;
#1 = VERTEX_POINT ( 'NONE', #45 ) ;
#2 = EDGE_LOOP ( 'NONE', ( #207, #118 ) ) ;
#3 = TOROIDAL_SURFACE ( 'NONE', #146, 0.6999999999999999556, 0.2000000000000000111 ) ;
#4 = ORIENTED_EDGE ( 'NONE', *, *, #300, .T. ) ;
#5 = CC_DESIGN_PERSON_AND_ORGANIZATION_ASSIGNMENT ( #15, #275, ( #212 ) ) ;
#6 = MANIFOLD_SOLID_BREP ( 'Zaoblit1', #50 ) ;
#7 = ORIENTED_EDGE ( 'NONE', *, *, #307, .T. ) ;
#8 = PLANE ( 'NONE',  #161 ) ;
#9 = APPROVAL_ROLE ( '' ) ;
#10 = CARTESIAN_POINT ( 'NONE',  ( 0.000000000000000000, 0.000000000000000000, 1.399999999999998579 ) ) ;
#11 = CYLINDRICAL_SURFACE ( 'NONE', #183, 1.250000000000000000 ) ;
#12 = DIRECTION ( 'NONE',  ( 0.000000000000000000, 0.000000000000000000, 1.000000000000000000 ) ) ;
#13 = LINE ( 'NONE', #177, #127 ) ;
#14 = DIRECTION ( 'NONE',  ( -0.000000000000000000, -0.000000000000000000, -1.000000000000000000 ) ) ;
#15 = PERSON_AND_ORGANIZATION ( #283, #263 ) ;
#16 = VERTEX_POINT ( 'NONE', #99 ) ;
#17 = AXIS2_PLACEMENT_3D ( 'NONE', #220, #279, #242 ) ;
#18 = CARTESIAN_POINT ( 'NONE',  ( 0.6999999999999999556, 0.000000000000000000, 1.199999999999999289 ) ) ;
#19 = ORIENTED_EDGE ( 'NONE', *, *, #170, .F. ) ;
#20 = AXIS2_PLACEMENT_3D ( 'NONE', #155, #79, #58 ) ;
#21 = EDGE_LOOP ( 'NONE', ( #211, #187, #289, #188 ) ) ;
#22 = AXIS2_PLACEMENT_3D ( 'NONE', #89, #181, #273 ) ;
#23 = PRODUCT_RELATED_PRODUCT_CATEGORY ( 'detail', '', ( #198 ) ) ;
#24 = ORIENTED_EDGE ( 'NONE', *, *, #270, .T. ) ;
#25 = APPLICATION_CONTEXT ( 'configuration controlled 3d designs of mechanical parts and assemblies' ) ;
#26 = DIRECTION ( 'NONE',  ( -0.000000000000000000, -0.000000000000000000, -1.000000000000000000 ) ) ;
#27 = CC_DESIGN_DATE_AND_TIME_ASSIGNMENT ( #37, #53, ( #212 ) ) ;
#28 = LOCAL_TIME ( 12, 30, 18.00000000000000000, #90 ) ;
#29 = DIRECTION ( 'NONE',  ( 1.000000000000000000, 0.000000000000000000, 0.000000000000000000 ) ) ;
#30 =( LENGTH_UNIT ( ) NAMED_UNIT ( * ) SI_UNIT ( .MILLI., .METRE. ) );
#31 = CYLINDRICAL_SURFACE ( 'NONE', #292, 0.5000000000000000000 ) ;
#32 = CIRCLE ( 'NONE', #94, 1.250000000000000000 ) ;
#33 = APPLICATION_PROTOCOL_DEFINITION ( 'international standard', 'config_control_design', 1994, #25 ) ;
#34 = APPROVAL_STATUS ( 'not_yet_approved' ) ;
#35 = DIRECTION ( 'NONE',  ( -1.000000000000000000, 0.000000000000000000, 0.000000000000000000 ) ) ;
#36 = DIRECTION ( 'NONE',  ( 0.000000000000000000, 0.000000000000000000, 1.000000000000000000 ) ) ;
#37 = DATE_AND_TIME ( #248, #201 ) ;
#38 = FACE_BOUND ( 'NONE', #151, .T. ) ;
#39 = CIRCLE ( 'NONE', #266, 0.1999999999999999833 ) ;
#40 = EDGE_CURVE ( 'NONE', #92, #287, #32, .T. ) ;
#41 = CIRCLE ( 'NONE', #165, 0.5000000000000000000 ) ;
#42 = PERSON_AND_ORGANIZATION_ROLE ( 'creator' ) ;
#43 = DATE_TIME_ROLE ( 'classification_date' ) ;
#44 = APPROVAL_PERSON_ORGANIZATION ( #86, #130, #269 ) ;
#45 = CARTESIAN_POINT ( 'NONE',  ( 1.250000000000000000, 1.530808498934191571E-16, 1.199999999999999956 ) ) ;
#46 = AXIS2_PLACEMENT_3D ( 'NONE', #174, #243, #109 ) ;
#47 = ORIENTED_EDGE ( 'NONE', *, *, #40, .T. ) ;
#48 = ORIENTED_EDGE ( 'NONE', *, *, #250, .T. ) ;
#49 = CIRCLE ( 'NONE', #256, 0.5000000000000000000 ) ;
#50 = CLOSED_SHELL ( 'NONE', ( #88, #113, #142, #145, #245, #192, #72, #98, #66 ) ) ;
#51 = DIRECTION ( 'NONE',  ( 0.000000000000000000, -1.000000000000000000, 0.000000000000000000 ) ) ;
#52 = CC_DESIGN_APPROVAL ( #186, ( #303 ) ) ;
#53 = DATE_TIME_ROLE ( 'creation_date' ) ;
#54 = CARTESIAN_POINT ( 'NONE',  ( 0.000000000000000000, 0.000000000000000000, 101.2000000000000171 ) ) ;
#55 = CALENDAR_DATE ( 2022, 20, 6 ) ;
#56 = DIRECTION ( 'NONE',  ( -0.000000000000000000, -0.000000000000000000, -1.000000000000000000 ) ) ;
#57 = EDGE_CURVE ( 'NONE', #233, #264, #85, .T. ) ;
#58 = DIRECTION ( 'NONE',  ( -1.000000000000000000, 0.000000000000000000, 0.000000000000000000 ) ) ;
#59 = COORDINATED_UNIVERSAL_TIME_OFFSET ( 1, 0, .AHEAD. ) ;
#60 = FACE_OUTER_BOUND ( 'NONE', #21, .T. ) ;
#61 = DIRECTION ( 'NONE',  ( 1.000000000000000000, 0.000000000000000000, -0.000000000000000000 ) ) ;
#62 = AXIS2_PLACEMENT_3D ( 'NONE', #195, #128, #173 ) ;
#63 = CARTESIAN_POINT ( 'NONE',  ( 0.000000000000000000, 0.000000000000000000, 101.2000000000000171 ) ) ;
#64 = EDGE_LOOP ( 'NONE', ( #261, #148, #290, #48 ) ) ;
#65 = CC_DESIGN_APPROVAL ( #295, ( #209 ) ) ;
#66 = ADVANCED_FACE ( 'NONE', ( #241 ), #244, .F. ) ;
#67 = ORIENTED_EDGE ( 'NONE', *, *, #250, .F. ) ;
#68 = EDGE_LOOP ( 'NONE', ( #24, #101 ) ) ;
#69 = PRODUCT_DEFINITION_SHAPE ( 'NONE', 'NONE',  #212 ) ;
#70 = VERTEX_POINT ( 'NONE', #299 ) ;
#71 = DESIGN_CONTEXT ( 'detailed design', #25, 'design' ) ;
#72 = ADVANCED_FACE ( 'NONE', ( #246 ), #31, .T. ) ;
#73 = ORIENTED_EDGE ( 'NONE', *, *, #194, .F. ) ;
#74 = VECTOR ( 'NONE', #56, 1000.000000000000000 ) ;
#75 = DIRECTION ( 'NONE',  ( -1.000000000000000000, 0.000000000000000000, 0.000000000000000000 ) ) ;
#76 = APPROVAL_DATE_TIME ( #132, #295 ) ;
#77 = PLANE ( 'NONE',  #46 ) ;
#78 = LOCAL_TIME ( 12, 30, 18.00000000000000000, #121 ) ;
#79 = DIRECTION ( 'NONE',  ( -0.000000000000000000, -0.000000000000000000, -1.000000000000000000 ) ) ;
#80 = CARTESIAN_POINT ( 'NONE',  ( -1.250000000000000000, 0.000000000000000000, 0.000000000000000000 ) ) ;
#81 = CC_DESIGN_PERSON_AND_ORGANIZATION_ASSIGNMENT ( #306, #164, ( #303 ) ) ;
#82 = CARTESIAN_POINT ( 'NONE',  ( 1.250000000000000000, 1.530808498934191571E-16, 0.000000000000000000 ) ) ;
#83 = DATE_AND_TIME ( #55, #282 ) ;
#84 = CALENDAR_DATE ( 2022, 20, 6 ) ;
#85 = LINE ( 'NONE', #247, #74 ) ;
#86 = PERSON_AND_ORGANIZATION ( #283, #263 ) ;
#87 = DIRECTION ( 'NONE',  ( 0.000000000000000000, 0.000000000000000000, 1.000000000000000000 ) ) ;
#88 = ADVANCED_FACE ( 'NONE', ( #221 ), #3, .F. ) ;
#89 = CARTESIAN_POINT ( 'NONE',  ( 0.000000000000000000, 0.000000000000000000, 1.199999999999999956 ) ) ;
#90 = COORDINATED_UNIVERSAL_TIME_OFFSET ( 1, 0, .AHEAD. ) ;
#91 = DIRECTION ( 'NONE',  ( 1.000000000000000000, 0.000000000000000000, 0.000000000000000000 ) ) ;
#92 = VERTEX_POINT ( 'NONE', #82 ) ;
#93 =( GEOMETRIC_REPRESENTATION_CONTEXT ( 3 ) GLOBAL_UNCERTAINTY_ASSIGNED_CONTEXT ( ( #228 ) ) GLOBAL_UNIT_ASSIGNED_CONTEXT ( ( #30, #225, #129 ) ) REPRESENTATION_CONTEXT ( 'NONE', 'WORKASPACE' ) );
#94 = AXIS2_PLACEMENT_3D ( 'NONE', #171, #223, #267 ) ;
#95 = PERSON_AND_ORGANIZATION ( #283, #263 ) ;
#96 = ORIENTED_EDGE ( 'NONE', *, *, #307, .F. ) ;
#97 = APPROVAL_STATUS ( 'not_yet_approved' ) ;
#98 = ADVANCED_FACE ( 'NONE', ( #178 ), #8, .T. ) ;
#99 = CARTESIAN_POINT ( 'NONE',  ( -0.5000000000000000000, 0.000000000000000000, 101.2000000000000171 ) ) ;
#100 = APPROVAL_PERSON_ORGANIZATION ( #240, #186, #255 ) ;
#101 = ORIENTED_EDGE ( 'NONE', *, *, #224, .T. ) ;
#102 = CIRCLE ( 'NONE', #62, 1.250000000000000000 ) ;
#103 = ORIENTED_EDGE ( 'NONE', *, *, #120, .T. ) ;
#104 = EDGE_LOOP ( 'NONE', ( #73, #147, #190, #96 ) ) ;
#105 = DIRECTION ( 'NONE',  ( 1.000000000000000000, 0.000000000000000000, 0.000000000000000000 ) ) ;
#106 = AXIS2_PLACEMENT_3D ( 'NONE', #265, #51, #152 ) ;
#107 = CARTESIAN_POINT ( 'NONE',  ( 0.000000000000000000, 0.000000000000000000, 101.2000000000000171 ) ) ;
#108 = PERSON_AND_ORGANIZATION_ROLE ( 'design_owner' ) ;
#109 = DIRECTION ( 'NONE',  ( 1.000000000000000000, 0.000000000000000000, -0.000000000000000000 ) ) ;
#110 = CC_DESIGN_PERSON_AND_ORGANIZATION_ASSIGNMENT ( #175, #108, ( #198 ) ) ;
#111 = APPLICATION_PROTOCOL_DEFINITION ( 'international standard', 'config_control_design', 1994, #135 ) ;
#112 = DIRECTION ( 'NONE',  ( 1.000000000000000000, 0.000000000000000000, 0.000000000000000000 ) ) ;
#113 = ADVANCED_FACE ( 'NONE', ( #180 ), #131, .T. ) ;
#114 = LINE ( 'NONE', #281, #288 ) ;
#115 = APPROVAL_DATE_TIME ( #83, #130 ) ;
#116 = DIRECTION ( 'NONE',  ( 1.000000000000000000, 0.000000000000000000, 0.000000000000000000 ) ) ;
#117 = LOCAL_TIME ( 12, 30, 18.00000000000000000, #293 ) ;
#118 = ORIENTED_EDGE ( 'NONE', *, *, #40, .F. ) ;
#119 = AXIS2_PLACEMENT_3D ( 'NONE', #10, #133, #29 ) ;
#120 = EDGE_CURVE ( 'NONE', #16, #233, #196, .T. ) ;
#121 = COORDINATED_UNIVERSAL_TIME_OFFSET ( 1, 0, .AHEAD. ) ;
#122 = EDGE_LOOP ( 'NONE', ( #235, #262, #213, #125 ) ) ;
#123 = EDGE_LOOP ( 'NONE', ( #172, #4, #47, #169 ) ) ;
#124 = AXIS2_PLACEMENT_3D ( 'NONE', #252, #230, #205 ) ;
#125 = ORIENTED_EDGE ( 'NONE', *, *, #203, .F. ) ;
#126 = FACE_OUTER_BOUND ( 'NONE', #123, .T. ) ;
#127 = VECTOR ( 'NONE', #138, 1000.000000000000000 ) ;
#128 = DIRECTION ( 'NONE',  ( 0.000000000000000000, 0.000000000000000000, 1.000000000000000000 ) ) ;
#129 =( NAMED_UNIT ( * ) SI_UNIT ( $, .STERADIAN. ) SOLID_ANGLE_UNIT ( ) );
#130 = APPROVAL ( #139, 'NEURÈENÝ' ) ;
#131 = CYLINDRICAL_SURFACE ( 'NONE', #20, 0.5000000000000000000 ) ;
#132 = DATE_AND_TIME ( #271, #117 ) ;
#133 = DIRECTION ( 'NONE',  ( 0.000000000000000000, 0.000000000000000000, 1.000000000000000000 ) ) ;
#134 = DIRECTION ( 'NONE',  ( 1.000000000000000000, 0.000000000000000000, 0.000000000000000000 ) ) ;
#135 = APPLICATION_CONTEXT ( 'configuration controlled 3d designs of mechanical parts and assemblies' ) ;
#136 = DIRECTION ( 'NONE',  ( 1.000000000000000000, 0.000000000000000000, 0.000000000000000000 ) ) ;
#137 = CC_DESIGN_DATE_AND_TIME_ASSIGNMENT ( #166, #43, ( #209 ) ) ;
#138 = DIRECTION ( 'NONE',  ( -0.000000000000000000, -0.000000000000000000, -1.000000000000000000 ) ) ;
#139 = APPROVAL_STATUS ( 'not_yet_approved' ) ;
#140 = DIRECTION ( 'NONE',  ( -0.000000000000000000, -0.000000000000000000, -1.000000000000000000 ) ) ;
#141 = CARTESIAN_POINT ( 'NONE',  ( -0.6999999999999999556, 8.572527594031473190E-17, 1.199999999999999289 ) ) ;
#142 = ADVANCED_FACE ( 'NONE', ( #126 ), #276, .T. ) ;
#143 = PERSON_AND_ORGANIZATION ( #283, #263 ) ;
#144 = APPROVAL_PERSON_ORGANIZATION ( #95, #295, #9 ) ;
#145 = ADVANCED_FACE ( 'NONE', ( #60 ), #11, .T. ) ;
#146 = AXIS2_PLACEMENT_3D ( 'NONE', #176, #12, #112 ) ;
#147 = ORIENTED_EDGE ( 'NONE', *, *, #149, .F. ) ;
#148 = ORIENTED_EDGE ( 'NONE', *, *, #120, .F. ) ;
#149 = EDGE_CURVE ( 'NONE', #264, #70, #254, .T. ) ;
#150 = ORIENTED_EDGE ( 'NONE', *, *, #194, .T. ) ;
#151 = EDGE_LOOP ( 'NONE', ( #257, #7 ) ) ;
#152 = DIRECTION ( 'NONE',  ( 0.000000000000000000, 0.000000000000000000, -1.000000000000000000 ) ) ;
#153 = EDGE_CURVE ( 'NONE', #287, #92, #102, .T. ) ;
#154 = SHAPE_DEFINITION_REPRESENTATION ( #69, #185 ) ;
#155 = CARTESIAN_POINT ( 'NONE',  ( 0.000000000000000000, 0.000000000000000000, 101.2000000000000171 ) ) ;
#156 = DIRECTION ( 'NONE',  ( -1.000000000000000000, 1.224646799147352714E-16, 0.000000000000000000 ) ) ;
#157 = DIRECTION ( 'NONE',  ( -0.000000000000000000, -0.000000000000000000, -1.000000000000000000 ) ) ;
#158 = CARTESIAN_POINT ( 'NONE',  ( 1.250000000000000000, 1.530808498934191571E-16, 1.199999999999999956 ) ) ;
#159 = AXIS2_PLACEMENT_3D ( 'NONE', #218, #291, #105 ) ;
#160 = CARTESIAN_POINT ( 'NONE',  ( -1.250000000000000000, 0.000000000000000000, 1.199999999999999956 ) ) ;
#161 = AXIS2_PLACEMENT_3D ( 'NONE', #301, #36, #274 ) ;
#162 = PERSON_AND_ORGANIZATION ( #283, #263 ) ;
#163 = CARTESIAN_POINT ( 'NONE',  ( 0.5000000000000000000, 6.123233995736766036E-17, 101.2000000000000171 ) ) ;
#164 = PERSON_AND_ORGANIZATION_ROLE ( 'design_supplier' ) ;
#165 = AXIS2_PLACEMENT_3D ( 'NONE', #63, #87, #91 ) ;
#166 = DATE_AND_TIME ( #284, #78 ) ;
#167 = AXIS2_PLACEMENT_3D ( 'NONE', #278, #184, #61 ) ;
#168 = AXIS2_PLACEMENT_3D ( 'NONE', #305, #253, #116 ) ;
#169 = ORIENTED_EDGE ( 'NONE', *, *, #258, .F. ) ;
#170 = EDGE_CURVE ( 'NONE', #264, #238, #232, .T. ) ;
#171 = CARTESIAN_POINT ( 'NONE',  ( 0.000000000000000000, 0.000000000000000000, 0.000000000000000000 ) ) ;
#172 = ORIENTED_EDGE ( 'NONE', *, *, #224, .F. ) ;
#173 = DIRECTION ( 'NONE',  ( 1.000000000000000000, 0.000000000000000000, 0.000000000000000000 ) ) ;
#174 = CARTESIAN_POINT ( 'NONE',  ( 0.000000000000000000, 0.000000000000000000, 0.000000000000000000 ) ) ;
#175 = PERSON_AND_ORGANIZATION ( #283, #263 ) ;
#176 = CARTESIAN_POINT ( 'NONE',  ( 0.000000000000000000, 0.000000000000000000, 1.399999999999998579 ) ) ;
#177 = CARTESIAN_POINT ( 'NONE',  ( -1.250000000000000000, 0.000000000000000000, 1.199999999999999956 ) ) ;
#178 = FACE_OUTER_BOUND ( 'NONE', #215, .T. ) ;
#179 = CARTESIAN_POINT ( 'NONE',  ( 0.000000000000000000, 0.000000000000000000, 1.199999999999999956 ) ) ;
#180 = FACE_OUTER_BOUND ( 'NONE', #122, .T. ) ;
#181 = DIRECTION ( 'NONE',  ( -0.000000000000000000, -0.000000000000000000, -1.000000000000000000 ) ) ;
#182 = PLANE ( 'NONE',  #167 ) ;
#183 = AXIS2_PLACEMENT_3D ( 'NONE', #239, #26, #75 ) ;
#184 = DIRECTION ( 'NONE',  ( 0.000000000000000000, 0.000000000000000000, 1.000000000000000000 ) ) ;
#185 = ADVANCED_BREP_SHAPE_REPRESENTATION ( '26c1', ( #6, #17 ), #93 ) ;
#186 = APPROVAL ( #34, 'NEURÈENÝ' ) ;
#187 = ORIENTED_EDGE ( 'NONE', *, *, #270, .F. ) ;
#188 = ORIENTED_EDGE ( 'NONE', *, *, #153, .T. ) ;
#189 = VECTOR ( 'NONE', #157, 1000.000000000000000 ) ;
#190 = ORIENTED_EDGE ( 'NONE', *, *, #170, .T. ) ;
#191 = AXIS2_PLACEMENT_3D ( 'NONE', #107, #197, #136 ) ;
#192 = ADVANCED_FACE ( 'NONE', ( #294 ), #77, .F. ) ;
#193 = ORIENTED_EDGE ( 'NONE', *, *, #234, .T. ) ;
#194 = EDGE_CURVE ( 'NONE', #70, #216, #39, .T. ) ;
#195 = CARTESIAN_POINT ( 'NONE',  ( 0.000000000000000000, 0.000000000000000000, 0.000000000000000000 ) ) ;
#196 = CIRCLE ( 'NONE', #191, 0.5000000000000000000 ) ;
#197 = DIRECTION ( 'NONE',  ( 0.000000000000000000, 0.000000000000000000, 1.000000000000000000 ) ) ;
#198 = PRODUCT ( '26c1', '26c1', '', ( #202 ) ) ;
#199 = CARTESIAN_POINT ( 'NONE',  ( -0.6999999999999999556, 8.572527594031471957E-17, 1.399999999999998579 ) ) ;
#200 = COORDINATED_UNIVERSAL_TIME_OFFSET ( 1, 0, .AHEAD. ) ;
#201 = LOCAL_TIME ( 12, 30, 18.00000000000000000, #59 ) ;
#202 = MECHANICAL_CONTEXT ( 'NONE', #135, 'mechanical' ) ;
#203 = EDGE_CURVE ( 'NONE', #16, #70, #114, .T. ) ;
#204 = DIRECTION ( 'NONE',  ( -1.000000000000000000, 0.000000000000000000, 0.000000000000000000 ) ) ;
#205 = DIRECTION ( 'NONE',  ( 1.000000000000000000, 0.000000000000000000, 0.000000000000000000 ) ) ;
#206 = CC_DESIGN_SECURITY_CLASSIFICATION ( #209, ( #303 ) ) ;
#207 = ORIENTED_EDGE ( 'NONE', *, *, #153, .F. ) ;
#208 = CC_DESIGN_PERSON_AND_ORGANIZATION_ASSIGNMENT ( #143, #231, ( #209 ) ) ;
#209 = SECURITY_CLASSIFICATION ( '', '', #236 ) ;
#210 = VERTEX_POINT ( 'NONE', #160 ) ;
#211 = ORIENTED_EDGE ( 'NONE', *, *, #300, .F. ) ;
#212 = PRODUCT_DEFINITION ( 'NEZNÁMÝ', '', #303, #71 ) ;
#213 = ORIENTED_EDGE ( 'NONE', *, *, #149, .T. ) ;
#214 = CIRCLE ( 'NONE', #219, 1.250000000000000000 ) ;
#215 = EDGE_LOOP ( 'NONE', ( #103, #193 ) ) ;
#216 = VERTEX_POINT ( 'NONE', #141 ) ;
#217 = EDGE_CURVE ( 'NONE', #238, #216, #237, .T. ) ;
#218 = CARTESIAN_POINT ( 'NONE',  ( 0.000000000000000000, 0.000000000000000000, 1.399999999999998579 ) ) ;
#219 = AXIS2_PLACEMENT_3D ( 'NONE', #179, #251, #296 ) ;
#220 = CARTESIAN_POINT ( 'NONE',  ( 0.000000000000000000, 0.000000000000000000, 0.000000000000000000 ) ) ;
#221 = FACE_OUTER_BOUND ( 'NONE', #286, .T. ) ;
#222 = LINE ( 'NONE', #158, #189 ) ;
#223 = DIRECTION ( 'NONE',  ( 0.000000000000000000, 0.000000000000000000, 1.000000000000000000 ) ) ;
#224 = EDGE_CURVE ( 'NONE', #1, #210, #277, .T. ) ;
#225 =( NAMED_UNIT ( * ) PLANE_ANGLE_UNIT ( ) SI_UNIT ( $, .RADIAN. ) );
#226 = CIRCLE ( 'NONE', #22, 0.6999999999999999556 ) ;
#227 = CARTESIAN_POINT ( 'NONE',  ( 0.000000000000000000, 0.000000000000000000, 1.199999999999999956 ) ) ;
#228 = UNCERTAINTY_MEASURE_WITH_UNIT (LENGTH_MEASURE( 1.000000000000000082E-05 ), #30, 'distance_accuracy_value', 'NONE');
#229 = CARTESIAN_POINT ( 'NONE',  ( 0.5000000000000000000, 6.123233995736766036E-17, 1.399999999999998579 ) ) ;
#230 = DIRECTION ( 'NONE',  ( 0.000000000000000000, 0.000000000000000000, 1.000000000000000000 ) ) ;
#231 = PERSON_AND_ORGANIZATION_ROLE ( 'classification_officer' ) ;
#232 = CIRCLE ( 'NONE', #106, 0.2000000000000000944 ) ;
#233 = VERTEX_POINT ( 'NONE', #163 ) ;
#234 = EDGE_CURVE ( 'NONE', #233, #16, #41, .T. ) ;
#235 = ORIENTED_EDGE ( 'NONE', *, *, #234, .F. ) ;
#236 = SECURITY_CLASSIFICATION_LEVEL ( 'unclassified' ) ;
#237 = CIRCLE ( 'NONE', #168, 0.6999999999999999556 ) ;
#238 = VERTEX_POINT ( 'NONE', #18 ) ;
#239 = CARTESIAN_POINT ( 'NONE',  ( 0.000000000000000000, 0.000000000000000000, 1.199999999999999956 ) ) ;
#240 = PERSON_AND_ORGANIZATION ( #283, #263 ) ;
#241 = FACE_OUTER_BOUND ( 'NONE', #104, .T. ) ;
#242 = DIRECTION ( 'NONE',  ( 1.000000000000000000, 0.000000000000000000, 0.000000000000000000 ) ) ;
#243 = DIRECTION ( 'NONE',  ( 0.000000000000000000, 0.000000000000000000, 1.000000000000000000 ) ) ;
#244 = TOROIDAL_SURFACE ( 'NONE', #119, 0.6999999999999999556, 0.2000000000000000111 ) ;
#245 = ADVANCED_FACE ( 'NONE', ( #38, #302 ), #182, .T. ) ;
#246 = FACE_OUTER_BOUND ( 'NONE', #64, .T. ) ;
#247 = CARTESIAN_POINT ( 'NONE',  ( 0.5000000000000000000, 6.123233995736766036E-17, 101.2000000000000171 ) ) ;
#248 = CALENDAR_DATE ( 2022, 20, 6 ) ;
#249 = DATE_AND_TIME ( #84, #28 ) ;
#250 = EDGE_CURVE ( 'NONE', #70, #264, #49, .T. ) ;
#251 = DIRECTION ( 'NONE',  ( 0.000000000000000000, 0.000000000000000000, 1.000000000000000000 ) ) ;
#252 = CARTESIAN_POINT ( 'NONE',  ( 0.000000000000000000, 0.000000000000000000, 1.199999999999999956 ) ) ;
#253 = DIRECTION ( 'NONE',  ( -0.000000000000000000, -0.000000000000000000, -1.000000000000000000 ) ) ;
#254 = CIRCLE ( 'NONE', #159, 0.5000000000000000000 ) ;
#255 = APPROVAL_ROLE ( '' ) ;
#256 = AXIS2_PLACEMENT_3D ( 'NONE', #298, #304, #134 ) ;
#257 = ORIENTED_EDGE ( 'NONE', *, *, #217, .T. ) ;
#258 = EDGE_CURVE ( 'NONE', #210, #287, #13, .T. ) ;
#259 = AXIS2_PLACEMENT_3D ( 'NONE', #227, #14, #204 ) ;
#260 = ORIENTED_EDGE ( 'NONE', *, *, #217, .F. ) ;
#261 = ORIENTED_EDGE ( 'NONE', *, *, #57, .F. ) ;
#262 = ORIENTED_EDGE ( 'NONE', *, *, #57, .T. ) ;
#263 = ORGANIZATION ( 'NEURÈENÝ', 'NEURÈENÝ', '' ) ;
#264 = VERTEX_POINT ( 'NONE', #229 ) ;
#265 = CARTESIAN_POINT ( 'NONE',  ( 0.6999999999999999556, 0.000000000000000000, 1.399999999999998579 ) ) ;
#266 = AXIS2_PLACEMENT_3D ( 'NONE', #199, #272, #156 ) ;
#267 = DIRECTION ( 'NONE',  ( 1.000000000000000000, 0.000000000000000000, 0.000000000000000000 ) ) ;
#268 = CC_DESIGN_APPROVAL ( #130, ( #212 ) ) ;
#269 = APPROVAL_ROLE ( '' ) ;
#270 = EDGE_CURVE ( 'NONE', #210, #1, #214, .T. ) ;
#271 = CALENDAR_DATE ( 2022, 20, 6 ) ;
#272 = DIRECTION ( 'NONE',  ( 1.224646799147353207E-16, 1.000000000000000000, -0.000000000000000000 ) ) ;
#273 = DIRECTION ( 'NONE',  ( 1.000000000000000000, 0.000000000000000000, 0.000000000000000000 ) ) ;
#274 = DIRECTION ( 'NONE',  ( 1.000000000000000000, 0.000000000000000000, -0.000000000000000000 ) ) ;
#275 = PERSON_AND_ORGANIZATION_ROLE ( 'creator' ) ;
#276 = CYLINDRICAL_SURFACE ( 'NONE', #259, 1.250000000000000000 ) ;
#277 = CIRCLE ( 'NONE', #124, 1.250000000000000000 ) ;
#278 = CARTESIAN_POINT ( 'NONE',  ( 0.000000000000000000, 0.000000000000000000, 1.199999999999999956 ) ) ;
#279 = DIRECTION ( 'NONE',  ( 0.000000000000000000, 0.000000000000000000, 1.000000000000000000 ) ) ;
#280 = APPROVAL_DATE_TIME ( #249, #186 ) ;
#281 = CARTESIAN_POINT ( 'NONE',  ( -0.5000000000000000000, 0.000000000000000000, 101.2000000000000171 ) ) ;
#282 = LOCAL_TIME ( 12, 30, 18.00000000000000000, #200 ) ;
#283 = PERSON ( 'NEURÈENÝ', 'NEURÈENÝ', 'NEURÈENÝ', ('NEURÈENÝ'), ('NEURÈENÝ'), ('NEURÈENÝ') ) ;
#284 = CALENDAR_DATE ( 2022, 20, 6 ) ;
#285 = CC_DESIGN_PERSON_AND_ORGANIZATION_ASSIGNMENT ( #162, #42, ( #303 ) ) ;
#286 = EDGE_LOOP ( 'NONE', ( #67, #150, #260, #19 ) ) ;
#287 = VERTEX_POINT ( 'NONE', #80 ) ;
#288 = VECTOR ( 'NONE', #140, 1000.000000000000000 ) ;
#289 = ORIENTED_EDGE ( 'NONE', *, *, #258, .T. ) ;
#290 = ORIENTED_EDGE ( 'NONE', *, *, #203, .T. ) ;
#291 = DIRECTION ( 'NONE',  ( 0.000000000000000000, 0.000000000000000000, 1.000000000000000000 ) ) ;
#292 = AXIS2_PLACEMENT_3D ( 'NONE', #54, #297, #35 ) ;
#293 = COORDINATED_UNIVERSAL_TIME_OFFSET ( 1, 0, .AHEAD. ) ;
#294 = FACE_OUTER_BOUND ( 'NONE', #2, .T. ) ;
#295 = APPROVAL ( #97, 'NEURÈENÝ' ) ;
#296 = DIRECTION ( 'NONE',  ( 1.000000000000000000, 0.000000000000000000, 0.000000000000000000 ) ) ;
#297 = DIRECTION ( 'NONE',  ( -0.000000000000000000, -0.000000000000000000, -1.000000000000000000 ) ) ;
#298 = CARTESIAN_POINT ( 'NONE',  ( 0.000000000000000000, 0.000000000000000000, 1.399999999999998579 ) ) ;
#299 = CARTESIAN_POINT ( 'NONE',  ( -0.5000000000000000000, 0.000000000000000000, 1.399999999999998579 ) ) ;
#300 = EDGE_CURVE ( 'NONE', #1, #92, #222, .T. ) ;
#301 = CARTESIAN_POINT ( 'NONE',  ( 0.000000000000000000, 0.000000000000000000, 101.2000000000000171 ) ) ;
#302 = FACE_OUTER_BOUND ( 'NONE', #68, .T. ) ;
#303 = PRODUCT_DEFINITION_FORMATION_WITH_SPECIFIED_SOURCE ( 'LIBOVOLNÝ', '', #198, .NOT_KNOWN. ) ;
#304 = DIRECTION ( 'NONE',  ( 0.000000000000000000, 0.000000000000000000, 1.000000000000000000 ) ) ;
#305 = CARTESIAN_POINT ( 'NONE',  ( 0.000000000000000000, 0.000000000000000000, 1.199999999999999956 ) ) ;
#306 = PERSON_AND_ORGANIZATION ( #283, #263 ) ;
#307 = EDGE_CURVE ( 'NONE', #216, #238, #226, .T. ) ;
ENDSEC;
END-ISO-10303-21;
