ISO-10303-21;
HEADER;
FILE_DESCRIPTION (( 'STEP AP203' ),
    '1' );
FILE_NAME ('79ab.STEP',
    '2022-06-20T10:17:21',
    ( '' ),
    ( '' ),
    'SwSTEP 2.0',
    'SolidWorks 2019',
    '' );
FILE_SCHEMA (( 'CONFIG_CONTROL_DESIGN' ));
ENDSEC;

DATA;
#1 = AXIS2_PLACEMENT_3D ( 'NONE', #168, #164, #212 ) ;
#2 = FACE_OUTER_BOUND ( 'NONE', #179, .T. ) ;
#3 = CC_DESIGN_PERSON_AND_ORGANIZATION_ASSIGNMENT ( #287, #193, ( #160 ) ) ;
#4 = DIRECTION ( 'NONE',  ( 0.000000000000000000, 0.000000000000000000, 1.000000000000000000 ) ) ;
#5 = DATE_AND_TIME ( #196, #82 ) ;
#6 = FACE_OUTER_BOUND ( 'NONE', #83, .T. ) ;
#7 = DIRECTION ( 'NONE',  ( -0.000000000000000000, -0.000000000000000000, -1.000000000000000000 ) ) ;
#8 = AXIS2_PLACEMENT_3D ( 'NONE', #99, #7, #197 ) ;
#9 = ADVANCED_FACE ( 'NONE', ( #6 ), #75, .F. ) ;
#10 = FACE_BOUND ( 'NONE', #182, .T. ) ;
#11 = COORDINATED_UNIVERSAL_TIME_OFFSET ( 1, 0, .AHEAD. ) ;
#12 = CARTESIAN_POINT ( 'NONE',  ( 2.500000000000000000, 3.061616997868383141E-16, 0.000000000000000000 ) ) ;
#13 = DIRECTION ( 'NONE',  ( 1.000000000000000000, 0.000000000000000000, -0.000000000000000000 ) ) ;
#14 = CARTESIAN_POINT ( 'NONE',  ( -1.450000000000000178, 1.775737858763662163E-16, 2.199999999999979750 ) ) ;
#15 =( NAMED_UNIT ( * ) SI_UNIT ( $, .STERADIAN. ) SOLID_ANGLE_UNIT ( ) );
#16 = DIRECTION ( 'NONE',  ( -1.000000000000000000, 0.000000000000000000, 0.000000000000000000 ) ) ;
#17 = PRODUCT_DEFINITION_SHAPE ( 'NONE', 'NONE',  #163 ) ;
#18 = VERTEX_POINT ( 'NONE', #215 ) ;
#19 = AXIS2_PLACEMENT_3D ( 'NONE', #271, #169, #175 ) ;
#20 = VERTEX_POINT ( 'NONE', #145 ) ;
#21 = ORIENTED_EDGE ( 'NONE', *, *, #136, .T. ) ;
#22 = AXIS2_PLACEMENT_3D ( 'NONE', #285, #240, #220 ) ;
#23 = ORIENTED_EDGE ( 'NONE', *, *, #70, .F. ) ;
#24 = PRODUCT_RELATED_PRODUCT_CATEGORY ( 'detail', '', ( #63 ) ) ;
#25 = AXIS2_PLACEMENT_3D ( 'NONE', #87, #35, #108 ) ;
#26 = CARTESIAN_POINT ( 'NONE',  ( -1.450000000000000178, 1.775737858763662409E-16, 1.999999999999989564 ) ) ;
#27 = DIRECTION ( 'NONE',  ( 1.000000000000000000, 0.000000000000000000, 0.000000000000000000 ) ) ;
#28 = CC_DESIGN_APPROVAL ( #86, ( #213 ) ) ;
#29 = CYLINDRICAL_SURFACE ( 'NONE', #295, 1.250000000000000000 ) ;
#30 = CARTESIAN_POINT ( 'NONE',  ( 0.000000000000000000, 0.000000000000000000, 2.000000000000000000 ) ) ;
#31 = MECHANICAL_CONTEXT ( 'NONE', #189, 'mechanical' ) ;
#32 = DIRECTION ( 'NONE',  ( -1.000000000000000000, 0.000000000000000000, 0.000000000000000000 ) ) ;
#33 = ADVANCED_FACE ( 'NONE', ( #2 ), #29, .T. ) ;
#34 = DATE_TIME_ROLE ( 'creation_date' ) ;
#35 = DIRECTION ( 'NONE',  ( 0.000000000000000000, 0.000000000000000000, 1.000000000000000000 ) ) ;
#36 = APPROVAL_DATE_TIME ( #68, #86 ) ;
#37 = DIRECTION ( 'NONE',  ( 0.000000000000000000, 0.000000000000000000, 1.000000000000000000 ) ) ;
#38 = AXIS2_PLACEMENT_3D ( 'NONE', #274, #58, #16 ) ;
#39 = CYLINDRICAL_SURFACE ( 'NONE', #256, 2.500000000000000000 ) ;
#40 = CALENDAR_DATE ( 2022, 20, 6 ) ;
#41 = EDGE_LOOP ( 'NONE', ( #265, #209, #257, #23 ) ) ;
#42 = DIRECTION ( 'NONE',  ( -0.000000000000000000, -0.000000000000000000, -1.000000000000000000 ) ) ;
#43 = LOCAL_TIME ( 12, 17, 21.00000000000000000, #106 ) ;
#44 = EDGE_LOOP ( 'NONE', ( #166, #186, #162, #304 ) ) ;
#45 = VERTEX_POINT ( 'NONE', #26 ) ;
#46 = ADVANCED_FACE ( 'NONE', ( #262 ), #120, .F. ) ;
#47 = LOCAL_TIME ( 12, 17, 21.00000000000000000, #246 ) ;
#48 = DIRECTION ( 'NONE',  ( -0.000000000000000000, -0.000000000000000000, -1.000000000000000000 ) ) ;
#49 = ADVANCED_FACE ( 'NONE', ( #80 ), #237, .T. ) ;
#50 = LINE ( 'NONE', #261, #297 ) ;
#51 = CARTESIAN_POINT ( 'NONE',  ( 0.000000000000000000, 0.000000000000000000, 2.199999999999979750 ) ) ;
#52 = PERSON_AND_ORGANIZATION ( #76, #172 ) ;
#53 = DIRECTION ( 'NONE',  ( 1.000000000000000000, 0.000000000000000000, 0.000000000000000000 ) ) ;
#54 = CARTESIAN_POINT ( 'NONE',  ( 1.250000000000000000, 1.530808498934191571E-16, 402.0000000000000000 ) ) ;
#55 = ORIENTED_EDGE ( 'NONE', *, *, #111, .T. ) ;
#56 = EDGE_CURVE ( 'NONE', #259, #161, #141, .T. ) ;
#57 = SECURITY_CLASSIFICATION_LEVEL ( 'unclassified' ) ;
#58 = DIRECTION ( 'NONE',  ( -0.000000000000000000, -0.000000000000000000, -1.000000000000000000 ) ) ;
#59 = CLOSED_SHELL ( 'NONE', ( #46, #49, #218, #255, #210, #283, #33, #208, #9 ) ) ;
#60 = AXIS2_PLACEMENT_3D ( 'NONE', #194, #97, #78 ) ;
#61 = FACE_OUTER_BOUND ( 'NONE', #159, .T. ) ;
#62 = AXIS2_PLACEMENT_3D ( 'NONE', #307, #247, #153 ) ;
#63 = PRODUCT ( '79ab', '79ab', '', ( #31 ) ) ;
#64 = CC_DESIGN_PERSON_AND_ORGANIZATION_ASSIGNMENT ( #244, #128, ( #213 ) ) ;
#65 = PLANE ( 'NONE',  #89 ) ;
#66 = COORDINATED_UNIVERSAL_TIME_OFFSET ( 1, 0, .AHEAD. ) ;
#67 =( LENGTH_UNIT ( ) NAMED_UNIT ( * ) SI_UNIT ( .MILLI., .METRE. ) );
#68 = DATE_AND_TIME ( #40, #178 ) ;
#69 = APPROVAL_PERSON_ORGANIZATION ( #170, #305, #296 ) ;
#70 = EDGE_CURVE ( 'NONE', #161, #190, #290, .T. ) ;
#71 = CC_DESIGN_SECURITY_CLASSIFICATION ( #213, ( #160 ) ) ;
#72 = EDGE_CURVE ( 'NONE', #233, #254, #181, .T. ) ;
#73 = ORIENTED_EDGE ( 'NONE', *, *, #264, .F. ) ;
#74 = EDGE_LOOP ( 'NONE', ( #252, #21 ) ) ;
#75 = TOROIDAL_SURFACE ( 'NONE', #248, 1.450000000000000178, 0.2000000000000000111 ) ;
#76 = PERSON ( 'NEURÈENÝ', 'NEURÈENÝ', 'NEURÈENÝ', ('NEURÈENÝ'), ('NEURÈENÝ'), ('NEURÈENÝ') ) ;
#77 = APPLICATION_PROTOCOL_DEFINITION ( 'international standard', 'config_control_design', 1994, #189 ) ;
#78 = DIRECTION ( 'NONE',  ( 1.000000000000000000, 0.000000000000000000, 0.000000000000000000 ) ) ;
#79 = EDGE_LOOP ( 'NONE', ( #281, #114, #258, #205 ) ) ;
#80 = FACE_OUTER_BOUND ( 'NONE', #44, .T. ) ;
#81 = CC_DESIGN_DATE_AND_TIME_ASSIGNMENT ( #134, #204, ( #213 ) ) ;
#82 = LOCAL_TIME ( 12, 17, 21.00000000000000000, #150 ) ;
#83 = EDGE_LOOP ( 'NONE', ( #231, #95, #306, #96 ) ) ;
#84 = APPROVAL_DATE_TIME ( #130, #157 ) ;
#85 = APPROVAL_ROLE ( '' ) ;
#86 = APPROVAL ( #251, 'NEURÈENÝ' ) ;
#87 = CARTESIAN_POINT ( 'NONE',  ( 0.000000000000000000, 0.000000000000000000, 0.000000000000000000 ) ) ;
#88 = PERSON_AND_ORGANIZATION_ROLE ( 'design_supplier' ) ;
#89 = AXIS2_PLACEMENT_3D ( 'NONE', #151, #132, #13 ) ;
#90 = CARTESIAN_POINT ( 'NONE',  ( 1.450000000000000178, 0.000000000000000000, 1.999999999999989564 ) ) ;
#91 = FACE_OUTER_BOUND ( 'NONE', #79, .T. ) ;
#92 = CC_DESIGN_APPROVAL ( #157, ( #163 ) ) ;
#93 = ORIENTED_EDGE ( 'NONE', *, *, #184, .F. ) ;
#94 = ORIENTED_EDGE ( 'NONE', *, *, #225, .F. ) ;
#95 = ORIENTED_EDGE ( 'NONE', *, *, #154, .F. ) ;
#96 = ORIENTED_EDGE ( 'NONE', *, *, #123, .F. ) ;
#97 = DIRECTION ( 'NONE',  ( 0.000000000000000000, 0.000000000000000000, 1.000000000000000000 ) ) ;
#98 = CIRCLE ( 'NONE', #19, 2.500000000000000000 ) ;
#99 = CARTESIAN_POINT ( 'NONE',  ( 0.000000000000000000, 0.000000000000000000, 2.000000000000000000 ) ) ;
#100 = DIRECTION ( 'NONE',  ( -1.000000000000000000, 0.000000000000000000, 0.000000000000000000 ) ) ;
#101 = EDGE_CURVE ( 'NONE', #190, #45, #222, .T. ) ;
#102 = DIRECTION ( 'NONE',  ( 0.000000000000000000, 0.000000000000000000, 1.000000000000000000 ) ) ;
#103 = CALENDAR_DATE ( 2022, 20, 6 ) ;
#104 = DIRECTION ( 'NONE',  ( -0.000000000000000000, -0.000000000000000000, -1.000000000000000000 ) ) ;
#105 = CARTESIAN_POINT ( 'NONE',  ( 0.000000000000000000, 0.000000000000000000, 0.000000000000000000 ) ) ;
#106 = COORDINATED_UNIVERSAL_TIME_OFFSET ( 1, 0, .AHEAD. ) ;
#107 = CIRCLE ( 'NONE', #177, 2.500000000000000000 ) ;
#108 = DIRECTION ( 'NONE',  ( 1.000000000000000000, 0.000000000000000000, -0.000000000000000000 ) ) ;
#109 = AXIS2_PLACEMENT_3D ( 'NONE', #105, #144, #242 ) ;
#110 = DIRECTION ( 'NONE',  ( 1.224646799147353207E-16, 1.000000000000000000, -0.000000000000000000 ) ) ;
#111 = EDGE_CURVE ( 'NONE', #254, #233, #107, .T. ) ;
#112 = ORIENTED_EDGE ( 'NONE', *, *, #294, .F. ) ;
#113 = CIRCLE ( 'NONE', #62, 1.250000000000000000 ) ;
#114 = ORIENTED_EDGE ( 'NONE', *, *, #72, .F. ) ;
#115 = CC_DESIGN_PERSON_AND_ORGANIZATION_ASSIGNMENT ( #124, #216, ( #63 ) ) ;
#116 = AXIS2_PLACEMENT_3D ( 'NONE', #127, #4, #263 ) ;
#117 = AXIS2_PLACEMENT_3D ( 'NONE', #243, #104, #236 ) ;
#118 = ORIENTED_EDGE ( 'NONE', *, *, #173, .T. ) ;
#119 = CARTESIAN_POINT ( 'NONE',  ( -2.500000000000000000, 0.000000000000000000, 2.000000000000000000 ) ) ;
#120 = TOROIDAL_SURFACE ( 'NONE', #116, 1.450000000000000178, 0.2000000000000000111 ) ;
#121 = DIRECTION ( 'NONE',  ( -0.000000000000000000, -0.000000000000000000, -1.000000000000000000 ) ) ;
#122 = DIRECTION ( 'NONE',  ( -0.000000000000000000, -0.000000000000000000, -1.000000000000000000 ) ) ;
#123 = EDGE_CURVE ( 'NONE', #45, #190, #260, .T. ) ;
#124 = PERSON_AND_ORGANIZATION ( #76, #172 ) ;
#125 = DIRECTION ( 'NONE',  ( -0.000000000000000000, -0.000000000000000000, -1.000000000000000000 ) ) ;
#126 = APPROVAL_STATUS ( 'not_yet_approved' ) ;
#127 = CARTESIAN_POINT ( 'NONE',  ( 0.000000000000000000, 0.000000000000000000, 2.199999999999979750 ) ) ;
#128 = PERSON_AND_ORGANIZATION_ROLE ( 'classification_officer' ) ;
#129 = CARTESIAN_POINT ( 'NONE',  ( -1.250000000000000000, 0.000000000000000000, 2.199999999999979750 ) ) ;
#130 = DATE_AND_TIME ( #198, #195 ) ;
#131 = DIRECTION ( 'NONE',  ( 1.000000000000000000, 0.000000000000000000, -0.000000000000000000 ) ) ;
#132 = DIRECTION ( 'NONE',  ( 0.000000000000000000, 0.000000000000000000, 1.000000000000000000 ) ) ;
#133 = DIRECTION ( 'NONE',  ( 1.000000000000000000, 0.000000000000000000, 0.000000000000000000 ) ) ;
#134 = DATE_AND_TIME ( #268, #47 ) ;
#135 = ORIENTED_EDGE ( 'NONE', *, *, #72, .T. ) ;
#136 = EDGE_CURVE ( 'NONE', #278, #20, #223, .T. ) ;
#137 = CIRCLE ( 'NONE', #1, 1.250000000000000000 ) ;
#138 = ORIENTED_EDGE ( 'NONE', *, *, #56, .T. ) ;
#139 = LINE ( 'NONE', #119, #284 ) ;
#140 = DESIGN_CONTEXT ( 'detailed design', #276, 'design' ) ;
#141 = CIRCLE ( 'NONE', #302, 1.250000000000000000 ) ;
#142 = EDGE_CURVE ( 'NONE', #20, #259, #291, .T. ) ;
#143 = CARTESIAN_POINT ( 'NONE',  ( 0.000000000000000000, 0.000000000000000000, 402.0000000000000000 ) ) ;
#144 = DIRECTION ( 'NONE',  ( 0.000000000000000000, 0.000000000000000000, 1.000000000000000000 ) ) ;
#145 = CARTESIAN_POINT ( 'NONE',  ( -1.250000000000000000, 0.000000000000000000, 402.0000000000000000 ) ) ;
#146 = PLANE ( 'NONE',  #25 ) ;
#147 = APPLICATION_PROTOCOL_DEFINITION ( 'international standard', 'config_control_design', 1994, #276 ) ;
#148 = DIRECTION ( 'NONE',  ( -0.000000000000000000, -0.000000000000000000, -1.000000000000000000 ) ) ;
#149 = AXIS2_PLACEMENT_3D ( 'NONE', #174, #272, #131 ) ;
#150 = COORDINATED_UNIVERSAL_TIME_OFFSET ( 1, 0, .AHEAD. ) ;
#151 = CARTESIAN_POINT ( 'NONE',  ( 0.000000000000000000, 0.000000000000000000, 2.000000000000000000 ) ) ;
#152 = APPROVAL_ROLE ( '' ) ;
#153 = DIRECTION ( 'NONE',  ( 1.000000000000000000, 0.000000000000000000, 0.000000000000000000 ) ) ;
#154 = EDGE_CURVE ( 'NONE', #161, #259, #137, .T. ) ;
#155 =( NAMED_UNIT ( * ) PLANE_ANGLE_UNIT ( ) SI_UNIT ( $, .RADIAN. ) );
#156 = AXIS2_PLACEMENT_3D ( 'NONE', #224, #37, #133 ) ;
#157 = APPROVAL ( #126, 'NEURÈENÝ' ) ;
#158 = LINE ( 'NONE', #253, #229 ) ;
#159 = EDGE_LOOP ( 'NONE', ( #94, #112 ) ) ;
#160 = PRODUCT_DEFINITION_FORMATION_WITH_SPECIFIED_SOURCE ( 'LIBOVOLNÝ', '', #63, .NOT_KNOWN. ) ;
#161 = VERTEX_POINT ( 'NONE', #266 ) ;
#162 = ORIENTED_EDGE ( 'NONE', *, *, #154, .T. ) ;
#163 = PRODUCT_DEFINITION ( 'NEZNÁMÝ', '', #160, #140 ) ;
#164 = DIRECTION ( 'NONE',  ( 0.000000000000000000, 0.000000000000000000, 1.000000000000000000 ) ) ;
#165 = CARTESIAN_POINT ( 'NONE',  ( 0.000000000000000000, 0.000000000000000000, 402.0000000000000000 ) ) ;
#166 = ORIENTED_EDGE ( 'NONE', *, *, #136, .F. ) ;
#167 = DIRECTION ( 'NONE',  ( 0.000000000000000000, 0.000000000000000000, 1.000000000000000000 ) ) ;
#168 = CARTESIAN_POINT ( 'NONE',  ( 0.000000000000000000, 0.000000000000000000, 2.199999999999979750 ) ) ;
#169 = DIRECTION ( 'NONE',  ( 0.000000000000000000, 0.000000000000000000, 1.000000000000000000 ) ) ;
#170 = PERSON_AND_ORGANIZATION ( #76, #172 ) ;
#171 = FACE_OUTER_BOUND ( 'NONE', #74, .T. ) ;
#172 = ORGANIZATION ( 'NEURÈENÝ', 'NEURÈENÝ', '' ) ;
#173 = EDGE_CURVE ( 'NONE', #254, #206, #50, .T. ) ;
#174 = CARTESIAN_POINT ( 'NONE',  ( 0.000000000000000000, 0.000000000000000000, 402.0000000000000000 ) ) ;
#175 = DIRECTION ( 'NONE',  ( 1.000000000000000000, 0.000000000000000000, 0.000000000000000000 ) ) ;
#176 = CYLINDRICAL_SURFACE ( 'NONE', #38, 2.500000000000000000 ) ;
#177 = AXIS2_PLACEMENT_3D ( 'NONE', #30, #217, #235 ) ;
#178 = LOCAL_TIME ( 12, 17, 21.00000000000000000, #66 ) ;
#179 = EDGE_LOOP ( 'NONE', ( #73, #282, #277, #138 ) ) ;
#180 = AXIS2_PLACEMENT_3D ( 'NONE', #187, #122, #100 ) ;
#181 = CIRCLE ( 'NONE', #60, 2.500000000000000000 ) ;
#182 = EDGE_LOOP ( 'NONE', ( #303, #280 ) ) ;
#183 = APPROVAL_PERSON_ORGANIZATION ( #273, #86, #152 ) ;
#184 = EDGE_CURVE ( 'NONE', #233, #18, #139, .T. ) ;
#185 = ORIENTED_EDGE ( 'NONE', *, *, #294, .T. ) ;
#186 = ORIENTED_EDGE ( 'NONE', *, *, #264, .T. ) ;
#187 = CARTESIAN_POINT ( 'NONE',  ( 0.000000000000000000, 0.000000000000000000, 402.0000000000000000 ) ) ;
#188 = EDGE_CURVE ( 'NONE', #20, #278, #113, .T. ) ;
#189 = APPLICATION_CONTEXT ( 'configuration controlled 3d designs of mechanical parts and assemblies' ) ;
#190 = VERTEX_POINT ( 'NONE', #90 ) ;
#191 = APPROVAL_DATE_TIME ( #5, #305 ) ;
#192 = CARTESIAN_POINT ( 'NONE',  ( 0.000000000000000000, 0.000000000000000000, 2.199999999999979750 ) ) ;
#193 = PERSON_AND_ORGANIZATION_ROLE ( 'creator' ) ;
#194 = CARTESIAN_POINT ( 'NONE',  ( 0.000000000000000000, 0.000000000000000000, 2.000000000000000000 ) ) ;
#195 = LOCAL_TIME ( 12, 17, 21.00000000000000000, #11 ) ;
#196 = CALENDAR_DATE ( 2022, 20, 6 ) ;
#197 = DIRECTION ( 'NONE',  ( 1.000000000000000000, 0.000000000000000000, 0.000000000000000000 ) ) ;
#198 = CALENDAR_DATE ( 2022, 20, 6 ) ;
#199 = PERSON_AND_ORGANIZATION ( #76, #172 ) ;
#200 = FACE_OUTER_BOUND ( 'NONE', #226, .T. ) ;
#201 = CIRCLE ( 'NONE', #270, 0.2000000000000000944 ) ;
#202 = CARTESIAN_POINT ( 'NONE',  ( -2.500000000000000000, 0.000000000000000000, 2.000000000000000000 ) ) ;
#203 = CARTESIAN_POINT ( 'NONE',  ( 0.000000000000000000, 0.000000000000000000, 2.000000000000000000 ) ) ;
#204 = DATE_TIME_ROLE ( 'classification_date' ) ;
#205 = ORIENTED_EDGE ( 'NONE', *, *, #225, .T. ) ;
#206 = VERTEX_POINT ( 'NONE', #12 ) ;
#207 = ORIENTED_EDGE ( 'NONE', *, *, #111, .F. ) ;
#208 = ADVANCED_FACE ( 'NONE', ( #171 ), #269, .T. ) ;
#209 = ORIENTED_EDGE ( 'NONE', *, *, #232, .T. ) ;
#210 = ADVANCED_FACE ( 'NONE', ( #10, #200 ), #65, .T. ) ;
#211 = DIRECTION ( 'NONE',  ( -0.000000000000000000, -0.000000000000000000, -1.000000000000000000 ) ) ;
#212 = DIRECTION ( 'NONE',  ( 1.000000000000000000, 0.000000000000000000, 0.000000000000000000 ) ) ;
#213 = SECURITY_CLASSIFICATION ( '', '', #57 ) ;
#214 = APPROVAL_STATUS ( 'not_yet_approved' ) ;
#215 = CARTESIAN_POINT ( 'NONE',  ( -2.500000000000000000, 0.000000000000000000, 0.000000000000000000 ) ) ;
#216 = PERSON_AND_ORGANIZATION_ROLE ( 'design_owner' ) ;
#217 = DIRECTION ( 'NONE',  ( 0.000000000000000000, 0.000000000000000000, 1.000000000000000000 ) ) ;
#218 = ADVANCED_FACE ( 'NONE', ( #249 ), #176, .T. ) ;
#219 = PERSON_AND_ORGANIZATION_ROLE ( 'creator' ) ;
#220 = DIRECTION ( 'NONE',  ( 0.000000000000000000, 0.000000000000000000, -1.000000000000000000 ) ) ;
#221 = VECTOR ( 'NONE', #121, 1000.000000000000000 ) ;
#222 = CIRCLE ( 'NONE', #117, 1.450000000000000178 ) ;
#223 = CIRCLE ( 'NONE', #275, 1.250000000000000000 ) ;
#224 = CARTESIAN_POINT ( 'NONE',  ( 0.000000000000000000, 0.000000000000000000, 0.000000000000000000 ) ) ;
#225 = EDGE_CURVE ( 'NONE', #18, #206, #292, .T. ) ;
#226 = EDGE_LOOP ( 'NONE', ( #135, #55 ) ) ;
#227 = MANIFOLD_SOLID_BREP ( 'Zaoblit1', #59 ) ;
#228 = SHAPE_DEFINITION_REPRESENTATION ( #17, #238 ) ;
#229 = VECTOR ( 'NONE', #42, 1000.000000000000000 ) ;
#230 = EDGE_LOOP ( 'NONE', ( #207, #118, #185, #93 ) ) ;
#231 = ORIENTED_EDGE ( 'NONE', *, *, #232, .F. ) ;
#232 = EDGE_CURVE ( 'NONE', #259, #45, #201, .T. ) ;
#233 = VERTEX_POINT ( 'NONE', #202 ) ;
#234 =( GEOMETRIC_REPRESENTATION_CONTEXT ( 3 ) GLOBAL_UNCERTAINTY_ASSIGNED_CONTEXT ( ( #289 ) ) GLOBAL_UNIT_ASSIGNED_CONTEXT ( ( #67, #155, #15 ) ) REPRESENTATION_CONTEXT ( 'NONE', 'WORKASPACE' ) );
#235 = DIRECTION ( 'NONE',  ( 1.000000000000000000, 0.000000000000000000, 0.000000000000000000 ) ) ;
#236 = DIRECTION ( 'NONE',  ( 1.000000000000000000, 0.000000000000000000, 0.000000000000000000 ) ) ;
#237 = CYLINDRICAL_SURFACE ( 'NONE', #180, 1.250000000000000000 ) ;
#238 = ADVANCED_BREP_SHAPE_REPRESENTATION ( '79ab', ( #227, #109 ), #234 ) ;
#239 = DATE_AND_TIME ( #103, #43 ) ;
#240 = DIRECTION ( 'NONE',  ( 0.000000000000000000, -1.000000000000000000, 0.000000000000000000 ) ) ;
#241 = CC_DESIGN_PERSON_AND_ORGANIZATION_ASSIGNMENT ( #267, #88, ( #160 ) ) ;
#242 = DIRECTION ( 'NONE',  ( 1.000000000000000000, 0.000000000000000000, 0.000000000000000000 ) ) ;
#243 = CARTESIAN_POINT ( 'NONE',  ( 0.000000000000000000, 0.000000000000000000, 2.000000000000000000 ) ) ;
#244 = PERSON_AND_ORGANIZATION ( #76, #172 ) ;
#245 = DIRECTION ( 'NONE',  ( -1.000000000000000000, 0.000000000000000000, 0.000000000000000000 ) ) ;
#246 = COORDINATED_UNIVERSAL_TIME_OFFSET ( 1, 0, .AHEAD. ) ;
#247 = DIRECTION ( 'NONE',  ( 0.000000000000000000, 0.000000000000000000, 1.000000000000000000 ) ) ;
#248 = AXIS2_PLACEMENT_3D ( 'NONE', #51, #288, #286 ) ;
#249 = FACE_OUTER_BOUND ( 'NONE', #230, .T. ) ;
#250 = DIRECTION ( 'NONE',  ( -1.000000000000000000, 1.224646799147353207E-16, 0.000000000000000000 ) ) ;
#251 = APPROVAL_STATUS ( 'not_yet_approved' ) ;
#252 = ORIENTED_EDGE ( 'NONE', *, *, #188, .T. ) ;
#253 = CARTESIAN_POINT ( 'NONE',  ( 1.250000000000000000, 1.530808498934191571E-16, 402.0000000000000000 ) ) ;
#254 = VERTEX_POINT ( 'NONE', #299 ) ;
#255 = ADVANCED_FACE ( 'NONE', ( #91 ), #39, .T. ) ;
#256 = AXIS2_PLACEMENT_3D ( 'NONE', #203, #148, #245 ) ;
#257 = ORIENTED_EDGE ( 'NONE', *, *, #101, .F. ) ;
#258 = ORIENTED_EDGE ( 'NONE', *, *, #184, .T. ) ;
#259 = VERTEX_POINT ( 'NONE', #129 ) ;
#260 = CIRCLE ( 'NONE', #8, 1.450000000000000178 ) ;
#261 = CARTESIAN_POINT ( 'NONE',  ( 2.500000000000000000, 3.061616997868383141E-16, 2.000000000000000000 ) ) ;
#262 = FACE_OUTER_BOUND ( 'NONE', #41, .T. ) ;
#263 = DIRECTION ( 'NONE',  ( 1.000000000000000000, 0.000000000000000000, 0.000000000000000000 ) ) ;
#264 = EDGE_CURVE ( 'NONE', #278, #161, #158, .T. ) ;
#265 = ORIENTED_EDGE ( 'NONE', *, *, #56, .F. ) ;
#266 = CARTESIAN_POINT ( 'NONE',  ( 1.250000000000000000, 1.530808498934191571E-16, 2.199999999999979750 ) ) ;
#267 = PERSON_AND_ORGANIZATION ( #76, #172 ) ;
#268 = CALENDAR_DATE ( 2022, 20, 6 ) ;
#269 = PLANE ( 'NONE',  #149 ) ;
#270 = AXIS2_PLACEMENT_3D ( 'NONE', #14, #110, #250 ) ;
#271 = CARTESIAN_POINT ( 'NONE',  ( 0.000000000000000000, 0.000000000000000000, 0.000000000000000000 ) ) ;
#272 = DIRECTION ( 'NONE',  ( 0.000000000000000000, 0.000000000000000000, 1.000000000000000000 ) ) ;
#273 = PERSON_AND_ORGANIZATION ( #76, #172 ) ;
#274 = CARTESIAN_POINT ( 'NONE',  ( 0.000000000000000000, 0.000000000000000000, 2.000000000000000000 ) ) ;
#275 = AXIS2_PLACEMENT_3D ( 'NONE', #165, #102, #27 ) ;
#276 = APPLICATION_CONTEXT ( 'configuration controlled 3d designs of mechanical parts and assemblies' ) ;
#277 = ORIENTED_EDGE ( 'NONE', *, *, #142, .T. ) ;
#278 = VERTEX_POINT ( 'NONE', #54 ) ;
#279 = CC_DESIGN_APPROVAL ( #305, ( #160 ) ) ;
#280 = ORIENTED_EDGE ( 'NONE', *, *, #123, .T. ) ;
#281 = ORIENTED_EDGE ( 'NONE', *, *, #173, .F. ) ;
#282 = ORIENTED_EDGE ( 'NONE', *, *, #188, .F. ) ;
#283 = ADVANCED_FACE ( 'NONE', ( #61 ), #146, .F. ) ;
#284 = VECTOR ( 'NONE', #211, 1000.000000000000000 ) ;
#285 = CARTESIAN_POINT ( 'NONE',  ( 1.450000000000000178, 0.000000000000000000, 2.199999999999979750 ) ) ;
#286 = DIRECTION ( 'NONE',  ( 1.000000000000000000, 0.000000000000000000, 0.000000000000000000 ) ) ;
#287 = PERSON_AND_ORGANIZATION ( #76, #172 ) ;
#288 = DIRECTION ( 'NONE',  ( 0.000000000000000000, 0.000000000000000000, 1.000000000000000000 ) ) ;
#289 = UNCERTAINTY_MEASURE_WITH_UNIT (LENGTH_MEASURE( 1.000000000000000082E-05 ), #67, 'distance_accuracy_value', 'NONE');
#290 = CIRCLE ( 'NONE', #22, 0.2000000000000000944 ) ;
#291 = LINE ( 'NONE', #293, #221 ) ;
#292 = CIRCLE ( 'NONE', #156, 2.500000000000000000 ) ;
#293 = CARTESIAN_POINT ( 'NONE',  ( -1.250000000000000000, 0.000000000000000000, 402.0000000000000000 ) ) ;
#294 = EDGE_CURVE ( 'NONE', #206, #18, #98, .T. ) ;
#295 = AXIS2_PLACEMENT_3D ( 'NONE', #143, #125, #32 ) ;
#296 = APPROVAL_ROLE ( '' ) ;
#297 = VECTOR ( 'NONE', #48, 1000.000000000000000 ) ;
#298 = CC_DESIGN_DATE_AND_TIME_ASSIGNMENT ( #239, #34, ( #163 ) ) ;
#299 = CARTESIAN_POINT ( 'NONE',  ( 2.500000000000000000, 3.061616997868383141E-16, 2.000000000000000000 ) ) ;
#300 = APPROVAL_PERSON_ORGANIZATION ( #199, #157, #85 ) ;
#301 = CC_DESIGN_PERSON_AND_ORGANIZATION_ASSIGNMENT ( #52, #219, ( #163 ) ) ;
#302 = AXIS2_PLACEMENT_3D ( 'NONE', #192, #167, #53 ) ;
#303 = ORIENTED_EDGE ( 'NONE', *, *, #101, .T. ) ;
#304 = ORIENTED_EDGE ( 'NONE', *, *, #142, .F. ) ;
#305 = APPROVAL ( #214, 'NEURÈENÝ' ) ;
#306 = ORIENTED_EDGE ( 'NONE', *, *, #70, .T. ) ;
#307 = CARTESIAN_POINT ( 'NONE',  ( 0.000000000000000000, 0.000000000000000000, 402.0000000000000000 ) ) ;
ENDSEC;
END-ISO-10303-21;
