ISO-10303-21;
HEADER;
FILE_DESCRIPTION (( 'STEP AP203' ),
    '1' );
FILE_NAME ('33a1.STEP',
    '2022-06-20T10:20:43',
    ( '' ),
    ( '' ),
    'SwSTEP 2.0',
    'SolidWorks 2019',
    '' );
FILE_SCHEMA (( 'CONFIG_CONTROL_DESIGN' ));
ENDSEC;

DATA;
#1 = DIRECTION ( 'NONE',  ( 1.000000000000000000, 0.000000000000000000, 0.000000000000000000 ) ) ;
#2 = CC_DESIGN_APPROVAL ( #68, ( #47 ) ) ;
#3 = VECTOR ( 'NONE', #33, 1000.000000000000000 ) ;
#4 = ADVANCED_FACE ( 'NONE', ( #167 ), #264, .F. ) ;
#5 = AXIS2_PLACEMENT_3D ( 'NONE', #61, #169, #231 ) ;
#6 = ORIENTED_EDGE ( 'NONE', *, *, #151, .T. ) ;
#7 = ORIENTED_EDGE ( 'NONE', *, *, #15, .F. ) ;
#8 = DIRECTION ( 'NONE',  ( 0.000000000000000000, 0.000000000000000000, 1.000000000000000000 ) ) ;
#9 = EDGE_LOOP ( 'NONE', ( #7, #105, #32, #109 ) ) ;
#10 = DIRECTION ( 'NONE',  ( -1.000000000000000000, 0.000000000000000000, 0.000000000000000000 ) ) ;
#11 = VERTEX_POINT ( 'NONE', #165 ) ;
#12 = CARTESIAN_POINT ( 'NONE',  ( 0.000000000000000000, 0.000000000000000000, 2.000000000000000000 ) ) ;
#13 = CARTESIAN_POINT ( 'NONE',  ( -2.000000000000000000, 0.000000000000000000, 0.000000000000000000 ) ) ;
#14 = DIRECTION ( 'NONE',  ( 0.000000000000000000, -1.000000000000000000, 0.000000000000000000 ) ) ;
#15 = EDGE_CURVE ( 'NONE', #182, #198, #20, .T. ) ;
#16 = DIRECTION ( 'NONE',  ( 1.000000000000000000, 0.000000000000000000, 0.000000000000000000 ) ) ;
#17 = DIRECTION ( 'NONE',  ( 0.000000000000000000, 0.000000000000000000, 1.000000000000000000 ) ) ;
#18 = AXIS2_PLACEMENT_3D ( 'NONE', #301, #42, #117 ) ;
#19 = PERSON_AND_ORGANIZATION_ROLE ( 'creator' ) ;
#20 = LINE ( 'NONE', #40, #218 ) ;
#21 = CARTESIAN_POINT ( 'NONE',  ( 0.000000000000000000, 0.000000000000000000, 2.000000000000000000 ) ) ;
#22 = COORDINATED_UNIVERSAL_TIME_OFFSET ( 1, 0, .AHEAD. ) ;
#23 = CC_DESIGN_PERSON_AND_ORGANIZATION_ASSIGNMENT ( #168, #41, ( #47 ) ) ;
#24 = CALENDAR_DATE ( 2022, 20, 6 ) ;
#25 = PRODUCT_DEFINITION_SHAPE ( 'NONE', 'NONE',  #251 ) ;
#26 = CC_DESIGN_APPROVAL ( #175, ( #101 ) ) ;
#27 = AXIS2_PLACEMENT_3D ( 'NONE', #139, #271, #163 ) ;
#28 = EDGE_CURVE ( 'NONE', #159, #198, #287, .T. ) ;
#29 = CC_DESIGN_DATE_AND_TIME_ASSIGNMENT ( #284, #87, ( #251 ) ) ;
#30 = ORIENTED_EDGE ( 'NONE', *, *, #51, .T. ) ;
#31 = FACE_OUTER_BOUND ( 'NONE', #161, .T. ) ;
#32 = ORIENTED_EDGE ( 'NONE', *, *, #236, .T. ) ;
#33 = DIRECTION ( 'NONE',  ( -0.000000000000000000, -0.000000000000000000, -1.000000000000000000 ) ) ;
#34 = APPROVAL_DATE_TIME ( #243, #175 ) ;
#35 = FACE_OUTER_BOUND ( 'NONE', #180, .T. ) ;
#36 = EDGE_LOOP ( 'NONE', ( #52, #6, #176, #197 ) ) ;
#37 = DIRECTION ( 'NONE',  ( 1.000000000000000000, 0.000000000000000000, 0.000000000000000000 ) ) ;
#38 = CARTESIAN_POINT ( 'NONE',  ( 0.000000000000000000, 0.000000000000000000, 162.0000000000000000 ) ) ;
#39 = DIRECTION ( 'NONE',  ( -0.000000000000000000, -0.000000000000000000, -1.000000000000000000 ) ) ;
#40 = CARTESIAN_POINT ( 'NONE',  ( 1.000000000000000000, 1.224646799147353207E-16, 162.0000000000000000 ) ) ;
#41 = PERSON_AND_ORGANIZATION_ROLE ( 'design_supplier' ) ;
#42 = DIRECTION ( 'NONE',  ( 0.000000000000000000, 0.000000000000000000, 1.000000000000000000 ) ) ;
#43 = AXIS2_PLACEMENT_3D ( 'NONE', #74, #57, #80 ) ;
#44 = PERSON_AND_ORGANIZATION_ROLE ( 'classification_officer' ) ;
#45 = COORDINATED_UNIVERSAL_TIME_OFFSET ( 1, 0, .AHEAD. ) ;
#46 = APPROVAL_DATE_TIME ( #170, #68 ) ;
#47 = PRODUCT_DEFINITION_FORMATION_WITH_SPECIFIED_SOURCE ( 'LIBOVOLNÝ', '', #125, .NOT_KNOWN. ) ;
#48 = CIRCLE ( 'NONE', #200, 2.000000000000000000 ) ;
#49 = ORIENTED_EDGE ( 'NONE', *, *, #236, .F. ) ;
#50 = CALENDAR_DATE ( 2022, 20, 6 ) ;
#51 = EDGE_CURVE ( 'NONE', #198, #11, #134, .T. ) ;
#52 = ORIENTED_EDGE ( 'NONE', *, *, #266, .F. ) ;
#53 = DIRECTION ( 'NONE',  ( 0.000000000000000000, 0.000000000000000000, 1.000000000000000000 ) ) ;
#54 = FACE_BOUND ( 'NONE', #126, .T. ) ;
#55 = VERTEX_POINT ( 'NONE', #83 ) ;
#56 = CARTESIAN_POINT ( 'NONE',  ( 0.000000000000000000, 0.000000000000000000, 2.000000000000000000 ) ) ;
#57 = DIRECTION ( 'NONE',  ( -0.000000000000000000, -0.000000000000000000, -1.000000000000000000 ) ) ;
#58 = ADVANCED_FACE ( 'NONE', ( #186 ), #120, .F. ) ;
#59 = CYLINDRICAL_SURFACE ( 'NONE', #5, 1.000000000000000000 ) ;
#60 = PERSON_AND_ORGANIZATION_ROLE ( 'creator' ) ;
#61 = CARTESIAN_POINT ( 'NONE',  ( 0.000000000000000000, 0.000000000000000000, 162.0000000000000000 ) ) ;
#62 = CARTESIAN_POINT ( 'NONE',  ( 0.000000000000000000, 0.000000000000000000, 0.000000000000000000 ) ) ;
#63 = ORGANIZATION ( 'NEURÈENÝ', 'NEURÈENÝ', '' ) ;
#64 = AXIS2_PLACEMENT_3D ( 'NONE', #38, #188, #280 ) ;
#65 = APPROVAL_ROLE ( '' ) ;
#66 = PERSON_AND_ORGANIZATION ( #152, #63 ) ;
#67 = ADVANCED_FACE ( 'NONE', ( #210 ), #278, .T. ) ;
#68 = APPROVAL ( #123, 'NEURÈENÝ' ) ;
#69 = ADVANCED_FACE ( 'NONE', ( #234 ), #59, .T. ) ;
#70 = AXIS2_PLACEMENT_3D ( 'NONE', #21, #307, #1 ) ;
#71 = EDGE_LOOP ( 'NONE', ( #204, #97, #247, #72 ) ) ;
#72 = ORIENTED_EDGE ( 'NONE', *, *, #51, .F. ) ;
#73 = ADVANCED_FACE ( 'NONE', ( #255 ), #145, .F. ) ;
#74 = CARTESIAN_POINT ( 'NONE',  ( 0.000000000000000000, 0.000000000000000000, 2.000000000000000000 ) ) ;
#75 = DIRECTION ( 'NONE',  ( -0.000000000000000000, -0.000000000000000000, -1.000000000000000000 ) ) ;
#76 = ORIENTED_EDGE ( 'NONE', *, *, #303, .F. ) ;
#77 = FACE_OUTER_BOUND ( 'NONE', #36, .T. ) ;
#78 = ORIENTED_EDGE ( 'NONE', *, *, #116, .T. ) ;
#79 = CC_DESIGN_PERSON_AND_ORGANIZATION_ASSIGNMENT ( #122, #19, ( #251 ) ) ;
#80 = DIRECTION ( 'NONE',  ( -1.000000000000000000, 0.000000000000000000, 0.000000000000000000 ) ) ;
#81 = LOCAL_TIME ( 12, 20, 43.00000000000000000, #191 ) ;
#82 = CIRCLE ( 'NONE', #209, 1.000000000000000000 ) ;
#83 = CARTESIAN_POINT ( 'NONE',  ( -2.000000000000000000, 0.000000000000000000, 2.000000000000000000 ) ) ;
#84 = DIRECTION ( 'NONE',  ( -1.000000000000000000, 0.000000000000000000, 0.000000000000000000 ) ) ;
#85 = SHAPE_DEFINITION_REPRESENTATION ( #25, #289 ) ;
#86 = CARTESIAN_POINT ( 'NONE',  ( 1.200000000000000178, 0.000000000000000000, 2.200000000000007283 ) ) ;
#87 = DATE_TIME_ROLE ( 'creation_date' ) ;
#88 = APPROVAL_DATE_TIME ( #146, #196 ) ;
#89 = CIRCLE ( 'NONE', #90, 1.000000000000000000 ) ;
#90 = AXIS2_PLACEMENT_3D ( 'NONE', #258, #93, #193 ) ;
#91 = PERSON_AND_ORGANIZATION_ROLE ( 'design_owner' ) ;
#92 = DATE_TIME_ROLE ( 'classification_date' ) ;
#93 = DIRECTION ( 'NONE',  ( 0.000000000000000000, 0.000000000000000000, 1.000000000000000000 ) ) ;
#94 = AXIS2_PLACEMENT_3D ( 'NONE', #158, #199, #302 ) ;
#95 =( GEOMETRIC_REPRESENTATION_CONTEXT ( 3 ) GLOBAL_UNCERTAINTY_ASSIGNED_CONTEXT ( ( #121 ) ) GLOBAL_UNIT_ASSIGNED_CONTEXT ( ( #240, #189, #149 ) ) REPRESENTATION_CONTEXT ( 'NONE', 'WORKASPACE' ) );
#96 = EDGE_LOOP ( 'NONE', ( #153, #224 ) ) ;
#97 = ORIENTED_EDGE ( 'NONE', *, *, #260, .T. ) ;
#98 = APPROVAL_STATUS ( 'not_yet_approved' ) ;
#99 = CARTESIAN_POINT ( 'NONE',  ( 0.000000000000000000, 0.000000000000000000, 0.000000000000000000 ) ) ;
#100 = ORIENTED_EDGE ( 'NONE', *, *, #174, .T. ) ;
#101 = SECURITY_CLASSIFICATION ( '', '', #256 ) ;
#102 = FACE_OUTER_BOUND ( 'NONE', #128, .T. ) ;
#103 = CIRCLE ( 'NONE', #178, 0.2000000000000000944 ) ;
#104 = AXIS2_PLACEMENT_3D ( 'NONE', #56, #277, #10 ) ;
#105 = ORIENTED_EDGE ( 'NONE', *, *, #141, .F. ) ;
#106 = MANIFOLD_SOLID_BREP ( 'Zaoblit1', #164 ) ;
#107 = DIRECTION ( 'NONE',  ( 1.000000000000000000, 0.000000000000000000, 0.000000000000000000 ) ) ;
#108 = ADVANCED_FACE ( 'NONE', ( #77 ), #166, .T. ) ;
#109 = ORIENTED_EDGE ( 'NONE', *, *, #28, .T. ) ;
#110 = DIRECTION ( 'NONE',  ( 1.000000000000000000, 0.000000000000000000, -0.000000000000000000 ) ) ;
#111 = DIRECTION ( 'NONE',  ( -0.000000000000000000, -0.000000000000000000, -1.000000000000000000 ) ) ;
#112 = CC_DESIGN_PERSON_AND_ORGANIZATION_ASSIGNMENT ( #215, #60, ( #47 ) ) ;
#113 = CARTESIAN_POINT ( 'NONE',  ( 0.000000000000000000, 0.000000000000000000, 2.000000000000000000 ) ) ;
#114 = DIRECTION ( 'NONE',  ( 1.000000000000000000, 0.000000000000000000, 0.000000000000000000 ) ) ;
#115 = COORDINATED_UNIVERSAL_TIME_OFFSET ( 1, 0, .AHEAD. ) ;
#116 = EDGE_CURVE ( 'NONE', #275, #296, #192, .T. ) ;
#117 = DIRECTION ( 'NONE',  ( 1.000000000000000000, 0.000000000000000000, 0.000000000000000000 ) ) ;
#118 = PERSON_AND_ORGANIZATION ( #152, #63 ) ;
#119 = APPLICATION_PROTOCOL_DEFINITION ( 'international standard', 'config_control_design', 1994, #265 ) ;
#120 = TOROIDAL_SURFACE ( 'NONE', #155, 1.200000000000000178, 0.2000000000000000111 ) ;
#121 = UNCERTAINTY_MEASURE_WITH_UNIT (LENGTH_MEASURE( 1.000000000000000082E-05 ), #240, 'distance_accuracy_value', 'NONE');
#122 = PERSON_AND_ORGANIZATION ( #152, #63 ) ;
#123 = APPROVAL_STATUS ( 'not_yet_approved' ) ;
#124 = PRODUCT_RELATED_PRODUCT_CATEGORY ( 'detail', '', ( #125 ) ) ;
#125 = PRODUCT ( '33a1', '33a1', '', ( #142 ) ) ;
#126 = EDGE_LOOP ( 'NONE', ( #100, #219 ) ) ;
#127 = VECTOR ( 'NONE', #250, 1000.000000000000000 ) ;
#128 = EDGE_LOOP ( 'NONE', ( #76, #290, #222, #49 ) ) ;
#129 = APPLICATION_CONTEXT ( 'configuration controlled 3d designs of mechanical parts and assemblies' ) ;
#130 = DIRECTION ( 'NONE',  ( 0.000000000000000000, 0.000000000000000000, 1.000000000000000000 ) ) ;
#131 = CARTESIAN_POINT ( 'NONE',  ( -1.000000000000000000, 0.000000000000000000, 162.0000000000000000 ) ) ;
#132 = ORIENTED_EDGE ( 'NONE', *, *, #138, .F. ) ;
#133 = CARTESIAN_POINT ( 'NONE',  ( 2.000000000000000000, 2.449293598294706414E-16, 2.000000000000000000 ) ) ;
#134 = CIRCLE ( 'NONE', #249, 0.2000000000000000944 ) ;
#135 = VERTEX_POINT ( 'NONE', #131 ) ;
#136 = CARTESIAN_POINT ( 'NONE',  ( -1.000000000000000000, 0.000000000000000000, 162.0000000000000000 ) ) ;
#137 = CARTESIAN_POINT ( 'NONE',  ( 0.000000000000000000, 0.000000000000000000, 0.000000000000000000 ) ) ;
#138 = EDGE_CURVE ( 'NONE', #270, #11, #233, .T. ) ;
#139 = CARTESIAN_POINT ( 'NONE',  ( 0.000000000000000000, 0.000000000000000000, 2.200000000000007283 ) ) ;
#140 = DIRECTION ( 'NONE',  ( 0.000000000000000000, 0.000000000000000000, -1.000000000000000000 ) ) ;
#141 = EDGE_CURVE ( 'NONE', #135, #182, #82, .T. ) ;
#142 = MECHANICAL_CONTEXT ( 'NONE', #265, 'mechanical' ) ;
#143 = CC_DESIGN_APPROVAL ( #196, ( #251 ) ) ;
#144 = VECTOR ( 'NONE', #246, 1000.000000000000000 ) ;
#145 = PLANE ( 'NONE',  #262 ) ;
#146 = DATE_AND_TIME ( #24, #241 ) ;
#147 = AXIS2_PLACEMENT_3D ( 'NONE', #253, #244, #279 ) ;
#148 = DESIGN_CONTEXT ( 'detailed design', #129, 'design' ) ;
#149 =( NAMED_UNIT ( * ) SI_UNIT ( $, .STERADIAN. ) SOLID_ANGLE_UNIT ( ) );
#150 = AXIS2_PLACEMENT_3D ( 'NONE', #99, #8, #16 ) ;
#151 = EDGE_CURVE ( 'NONE', #272, #296, #221, .T. ) ;
#152 = PERSON ( 'NEURÈENÝ', 'NEURÈENÝ', 'NEURÈENÝ', ('NEURÈENÝ'), ('NEURÈENÝ'), ('NEURÈENÝ') ) ;
#153 = ORIENTED_EDGE ( 'NONE', *, *, #116, .F. ) ;
#154 = AXIS2_PLACEMENT_3D ( 'NONE', #62, #286, #285 ) ;
#155 = AXIS2_PLACEMENT_3D ( 'NONE', #252, #17, #114 ) ;
#156 = LINE ( 'NONE', #136, #3 ) ;
#157 = ORIENTED_EDGE ( 'NONE', *, *, #141, .T. ) ;
#158 = CARTESIAN_POINT ( 'NONE',  ( 0.000000000000000000, 0.000000000000000000, 2.000000000000000000 ) ) ;
#159 = VERTEX_POINT ( 'NONE', #269 ) ;
#160 = DIRECTION ( 'NONE',  ( 1.000000000000000000, 0.000000000000000000, -0.000000000000000000 ) ) ;
#161 = EDGE_LOOP ( 'NONE', ( #202, #294, #220, #78 ) ) ;
#162 = CC_DESIGN_SECURITY_CLASSIFICATION ( #101, ( #47 ) ) ;
#163 = DIRECTION ( 'NONE',  ( 1.000000000000000000, 0.000000000000000000, 0.000000000000000000 ) ) ;
#164 = CLOSED_SHELL ( 'NONE', ( #58, #239, #108, #238, #288, #73, #69, #67, #4 ) ) ;
#165 = CARTESIAN_POINT ( 'NONE',  ( 1.200000000000000178, 0.000000000000000000, 2.000000000000003553 ) ) ;
#166 = CYLINDRICAL_SURFACE ( 'NONE', #43, 2.000000000000000000 ) ;
#167 = FACE_OUTER_BOUND ( 'NONE', #184, .T. ) ;
#168 = PERSON_AND_ORGANIZATION ( #152, #63 ) ;
#169 = DIRECTION ( 'NONE',  ( -0.000000000000000000, -0.000000000000000000, -1.000000000000000000 ) ) ;
#170 = DATE_AND_TIME ( #214, #190 ) ;
#171 = DATE_AND_TIME ( #235, #261 ) ;
#172 = PERSON_AND_ORGANIZATION ( #152, #63 ) ;
#173 = APPROVAL_STATUS ( 'not_yet_approved' ) ;
#174 = EDGE_CURVE ( 'NONE', #11, #270, #217, .T. ) ;
#175 = APPROVAL ( #98, 'NEURÈENÝ' ) ;
#176 = ORIENTED_EDGE ( 'NONE', *, *, #281, .T. ) ;
#177 = APPROVAL_PERSON_ORGANIZATION ( #172, #68, #65 ) ;
#178 = AXIS2_PLACEMENT_3D ( 'NONE', #292, #181, #248 ) ;
#179 = DIRECTION ( 'NONE',  ( 0.000000000000000000, 0.000000000000000000, 1.000000000000000000 ) ) ;
#180 = EDGE_LOOP ( 'NONE', ( #227, #242 ) ) ;
#181 = DIRECTION ( 'NONE',  ( 1.224646799147353207E-16, 1.000000000000000000, -0.000000000000000000 ) ) ;
#182 = VERTEX_POINT ( 'NONE', #226 ) ;
#183 = CARTESIAN_POINT ( 'NONE',  ( 1.000000000000000000, 1.224646799147353207E-16, 2.200000000000007283 ) ) ;
#184 = EDGE_LOOP ( 'NONE', ( #267, #298, #30, #132 ) ) ;
#185 = LINE ( 'NONE', #274, #144 ) ;
#186 = FACE_OUTER_BOUND ( 'NONE', #71, .T. ) ;
#187 = CARTESIAN_POINT ( 'NONE',  ( -1.200000000000000178, 1.469576158976823799E-16, 2.000000000000003553 ) ) ;
#188 = DIRECTION ( 'NONE',  ( 0.000000000000000000, 0.000000000000000000, 1.000000000000000000 ) ) ;
#189 =( NAMED_UNIT ( * ) PLANE_ANGLE_UNIT ( ) SI_UNIT ( $, .RADIAN. ) );
#190 = LOCAL_TIME ( 12, 20, 43.00000000000000000, #259 ) ;
#191 = COORDINATED_UNIVERSAL_TIME_OFFSET ( 1, 0, .AHEAD. ) ;
#192 = CIRCLE ( 'NONE', #147, 2.000000000000000000 ) ;
#193 = DIRECTION ( 'NONE',  ( 1.000000000000000000, 0.000000000000000000, 0.000000000000000000 ) ) ;
#194 = APPROVAL_PERSON_ORGANIZATION ( #66, #196, #306 ) ;
#195 = AXIS2_PLACEMENT_3D ( 'NONE', #113, #39, #37 ) ;
#196 = APPROVAL ( #173, 'NEURÈENÝ' ) ;
#197 = ORIENTED_EDGE ( 'NONE', *, *, #205, .F. ) ;
#198 = VERTEX_POINT ( 'NONE', #183 ) ;
#199 = DIRECTION ( 'NONE',  ( -0.000000000000000000, -0.000000000000000000, -1.000000000000000000 ) ) ;
#200 = AXIS2_PLACEMENT_3D ( 'NONE', #12, #130, #107 ) ;
#201 = CYLINDRICAL_SURFACE ( 'NONE', #293, 1.000000000000000000 ) ;
#202 = ORIENTED_EDGE ( 'NONE', *, *, #151, .F. ) ;
#203 = PLANE ( 'NONE',  #225 ) ;
#204 = ORIENTED_EDGE ( 'NONE', *, *, #28, .F. ) ;
#205 = EDGE_CURVE ( 'NONE', #55, #275, #185, .T. ) ;
#206 = CARTESIAN_POINT ( 'NONE',  ( 2.000000000000000000, 2.449293598294706414E-16, 0.000000000000000000 ) ) ;
#207 = DIRECTION ( 'NONE',  ( 1.000000000000000000, 0.000000000000000000, 0.000000000000000000 ) ) ;
#208 = DIRECTION ( 'NONE',  ( 1.000000000000000000, 0.000000000000000000, 0.000000000000000000 ) ) ;
#209 = AXIS2_PLACEMENT_3D ( 'NONE', #295, #53, #208 ) ;
#210 = FACE_OUTER_BOUND ( 'NONE', #268, .T. ) ;
#211 = CALENDAR_DATE ( 2022, 20, 6 ) ;
#212 = CARTESIAN_POINT ( 'NONE',  ( 0.000000000000000000, 0.000000000000000000, 2.200000000000007283 ) ) ;
#213 = APPLICATION_PROTOCOL_DEFINITION ( 'international standard', 'config_control_design', 1994, #129 ) ;
#214 = CALENDAR_DATE ( 2022, 20, 6 ) ;
#215 = PERSON_AND_ORGANIZATION ( #152, #63 ) ;
#216 = CC_DESIGN_PERSON_AND_ORGANIZATION_ASSIGNMENT ( #232, #44, ( #101 ) ) ;
#217 = CIRCLE ( 'NONE', #94, 1.200000000000000178 ) ;
#218 = VECTOR ( 'NONE', #111, 1000.000000000000000 ) ;
#219 = ORIENTED_EDGE ( 'NONE', *, *, #138, .T. ) ;
#220 = ORIENTED_EDGE ( 'NONE', *, *, #205, .T. ) ;
#221 = LINE ( 'NONE', #133, #127 ) ;
#222 = ORIENTED_EDGE ( 'NONE', *, *, #263, .T. ) ;
#223 = CYLINDRICAL_SURFACE ( 'NONE', #104, 2.000000000000000000 ) ;
#224 = ORIENTED_EDGE ( 'NONE', *, *, #281, .F. ) ;
#225 = AXIS2_PLACEMENT_3D ( 'NONE', #297, #228, #110 ) ;
#226 = CARTESIAN_POINT ( 'NONE',  ( 1.000000000000000000, 1.224646799147353207E-16, 162.0000000000000000 ) ) ;
#227 = ORIENTED_EDGE ( 'NONE', *, *, #304, .T. ) ;
#228 = DIRECTION ( 'NONE',  ( 0.000000000000000000, 0.000000000000000000, 1.000000000000000000 ) ) ;
#229 = PERSON_AND_ORGANIZATION ( #152, #63 ) ;
#230 = CARTESIAN_POINT ( 'NONE',  ( 2.000000000000000000, 2.449293598294706414E-16, 2.000000000000000000 ) ) ;
#231 = DIRECTION ( 'NONE',  ( -1.000000000000000000, 0.000000000000000000, 0.000000000000000000 ) ) ;
#232 = PERSON_AND_ORGANIZATION ( #152, #63 ) ;
#233 = CIRCLE ( 'NONE', #195, 1.200000000000000178 ) ;
#234 = FACE_OUTER_BOUND ( 'NONE', #9, .T. ) ;
#235 = CALENDAR_DATE ( 2022, 20, 6 ) ;
#236 = EDGE_CURVE ( 'NONE', #135, #159, #156, .T. ) ;
#237 = APPROVAL_ROLE ( '' ) ;
#238 = ADVANCED_FACE ( 'NONE', ( #31 ), #223, .T. ) ;
#239 = ADVANCED_FACE ( 'NONE', ( #102 ), #201, .T. ) ;
#240 =( LENGTH_UNIT ( ) NAMED_UNIT ( * ) SI_UNIT ( .MILLI., .METRE. ) );
#241 = LOCAL_TIME ( 12, 20, 43.00000000000000000, #115 ) ;
#242 = ORIENTED_EDGE ( 'NONE', *, *, #266, .T. ) ;
#243 = DATE_AND_TIME ( #50, #282 ) ;
#244 = DIRECTION ( 'NONE',  ( 0.000000000000000000, 0.000000000000000000, 1.000000000000000000 ) ) ;
#245 = CIRCLE ( 'NONE', #70, 2.000000000000000000 ) ;
#246 = DIRECTION ( 'NONE',  ( -0.000000000000000000, -0.000000000000000000, -1.000000000000000000 ) ) ;
#247 = ORIENTED_EDGE ( 'NONE', *, *, #174, .F. ) ;
#248 = DIRECTION ( 'NONE',  ( -1.000000000000000000, 1.224646799147351975E-16, 0.000000000000000000 ) ) ;
#249 = AXIS2_PLACEMENT_3D ( 'NONE', #86, #14, #140 ) ;
#250 = DIRECTION ( 'NONE',  ( -0.000000000000000000, -0.000000000000000000, -1.000000000000000000 ) ) ;
#251 = PRODUCT_DEFINITION ( 'NEZNÁMÝ', '', #47, #148 ) ;
#252 = CARTESIAN_POINT ( 'NONE',  ( 0.000000000000000000, 0.000000000000000000, 2.200000000000007283 ) ) ;
#253 = CARTESIAN_POINT ( 'NONE',  ( 0.000000000000000000, 0.000000000000000000, 0.000000000000000000 ) ) ;
#254 = CC_DESIGN_DATE_AND_TIME_ASSIGNMENT ( #171, #92, ( #101 ) ) ;
#255 = FACE_OUTER_BOUND ( 'NONE', #96, .T. ) ;
#256 = SECURITY_CLASSIFICATION_LEVEL ( 'unclassified' ) ;
#257 = CIRCLE ( 'NONE', #27, 1.000000000000000000 ) ;
#258 = CARTESIAN_POINT ( 'NONE',  ( 0.000000000000000000, 0.000000000000000000, 162.0000000000000000 ) ) ;
#259 = COORDINATED_UNIVERSAL_TIME_OFFSET ( 1, 0, .AHEAD. ) ;
#260 = EDGE_CURVE ( 'NONE', #159, #270, #103, .T. ) ;
#261 = LOCAL_TIME ( 12, 20, 43.00000000000000000, #45 ) ;
#262 = AXIS2_PLACEMENT_3D ( 'NONE', #137, #179, #160 ) ;
#263 = EDGE_CURVE ( 'NONE', #198, #159, #257, .T. ) ;
#264 = TOROIDAL_SURFACE ( 'NONE', #276, 1.200000000000000178, 0.2000000000000000111 ) ;
#265 = APPLICATION_CONTEXT ( 'configuration controlled 3d designs of mechanical parts and assemblies' ) ;
#266 = EDGE_CURVE ( 'NONE', #272, #55, #48, .T. ) ;
#267 = ORIENTED_EDGE ( 'NONE', *, *, #260, .F. ) ;
#268 = EDGE_LOOP ( 'NONE', ( #157, #291 ) ) ;
#269 = CARTESIAN_POINT ( 'NONE',  ( -1.000000000000000000, 0.000000000000000000, 2.200000000000007283 ) ) ;
#270 = VERTEX_POINT ( 'NONE', #187 ) ;
#271 = DIRECTION ( 'NONE',  ( 0.000000000000000000, 0.000000000000000000, 1.000000000000000000 ) ) ;
#272 = VERTEX_POINT ( 'NONE', #230 ) ;
#273 = CC_DESIGN_PERSON_AND_ORGANIZATION_ASSIGNMENT ( #118, #91, ( #125 ) ) ;
#274 = CARTESIAN_POINT ( 'NONE',  ( -2.000000000000000000, 0.000000000000000000, 2.000000000000000000 ) ) ;
#275 = VERTEX_POINT ( 'NONE', #13 ) ;
#276 = AXIS2_PLACEMENT_3D ( 'NONE', #212, #305, #207 ) ;
#277 = DIRECTION ( 'NONE',  ( -0.000000000000000000, -0.000000000000000000, -1.000000000000000000 ) ) ;
#278 = PLANE ( 'NONE',  #64 ) ;
#279 = DIRECTION ( 'NONE',  ( 1.000000000000000000, 0.000000000000000000, 0.000000000000000000 ) ) ;
#280 = DIRECTION ( 'NONE',  ( 1.000000000000000000, 0.000000000000000000, -0.000000000000000000 ) ) ;
#281 = EDGE_CURVE ( 'NONE', #296, #275, #283, .T. ) ;
#282 = LOCAL_TIME ( 12, 20, 43.00000000000000000, #22 ) ;
#283 = CIRCLE ( 'NONE', #150, 2.000000000000000000 ) ;
#284 = DATE_AND_TIME ( #211, #81 ) ;
#285 = DIRECTION ( 'NONE',  ( 1.000000000000000000, 0.000000000000000000, 0.000000000000000000 ) ) ;
#286 = DIRECTION ( 'NONE',  ( 0.000000000000000000, 0.000000000000000000, 1.000000000000000000 ) ) ;
#287 = CIRCLE ( 'NONE', #18, 1.000000000000000000 ) ;
#288 = ADVANCED_FACE ( 'NONE', ( #54, #35 ), #203, .T. ) ;
#289 = ADVANCED_BREP_SHAPE_REPRESENTATION ( '33a1', ( #106, #154 ), #95 ) ;
#290 = ORIENTED_EDGE ( 'NONE', *, *, #15, .T. ) ;
#291 = ORIENTED_EDGE ( 'NONE', *, *, #303, .T. ) ;
#292 = CARTESIAN_POINT ( 'NONE',  ( -1.200000000000000178, 1.469576158976823799E-16, 2.200000000000007283 ) ) ;
#293 = AXIS2_PLACEMENT_3D ( 'NONE', #299, #75, #84 ) ;
#294 = ORIENTED_EDGE ( 'NONE', *, *, #304, .F. ) ;
#295 = CARTESIAN_POINT ( 'NONE',  ( 0.000000000000000000, 0.000000000000000000, 162.0000000000000000 ) ) ;
#296 = VERTEX_POINT ( 'NONE', #206 ) ;
#297 = CARTESIAN_POINT ( 'NONE',  ( 0.000000000000000000, 0.000000000000000000, 2.000000000000000000 ) ) ;
#298 = ORIENTED_EDGE ( 'NONE', *, *, #263, .F. ) ;
#299 = CARTESIAN_POINT ( 'NONE',  ( 0.000000000000000000, 0.000000000000000000, 162.0000000000000000 ) ) ;
#300 = APPROVAL_PERSON_ORGANIZATION ( #229, #175, #237 ) ;
#301 = CARTESIAN_POINT ( 'NONE',  ( 0.000000000000000000, 0.000000000000000000, 2.200000000000007283 ) ) ;
#302 = DIRECTION ( 'NONE',  ( 1.000000000000000000, 0.000000000000000000, 0.000000000000000000 ) ) ;
#303 = EDGE_CURVE ( 'NONE', #182, #135, #89, .T. ) ;
#304 = EDGE_CURVE ( 'NONE', #55, #272, #245, .T. ) ;
#305 = DIRECTION ( 'NONE',  ( 0.000000000000000000, 0.000000000000000000, 1.000000000000000000 ) ) ;
#306 = APPROVAL_ROLE ( '' ) ;
#307 = DIRECTION ( 'NONE',  ( 0.000000000000000000, 0.000000000000000000, 1.000000000000000000 ) ) ;
ENDSEC;
END-ISO-10303-21;
