ISO-10303-21;
HEADER;
FILE_DESCRIPTION (( 'STEP AP203' ),
    '1' );
FILE_NAME ('da47.STEP',
    '2022-06-20T09:31:15',
    ( '' ),
    ( '' ),
    'SwSTEP 2.0',
    'SolidWorks 2019',
    '' );
FILE_SCHEMA (( 'CONFIG_CONTROL_DESIGN' ));
ENDSEC;

DATA;
#1 = DIRECTION ( 'NONE',  ( 0.000000000000000000, 0.000000000000000000, 1.000000000000000000 ) ) ;
#2 = AXIS2_PLACEMENT_3D ( 'NONE', #290, #189, #185 ) ;
#3 = DIRECTION ( 'NONE',  ( -1.000000000000000000, 0.000000000000000000, 0.000000000000000000 ) ) ;
#4 = CYLINDRICAL_SURFACE ( 'NONE', #275, 6.099999999999999645 ) ;
#5 = DIRECTION ( 'NONE',  ( 1.000000000000000000, 0.000000000000000000, 0.000000000000000000 ) ) ;
#6 = LOCAL_TIME ( 11, 31, 15.00000000000000000, #82 ) ;
#7 = CARTESIAN_POINT ( 'NONE',  ( -9.000000000000000000, 0.000000000000000000, 7.000000000000000000 ) ) ;
#8 = AXIS2_PLACEMENT_3D ( 'NONE', #212, #230, #5 ) ;
#9 = EDGE_CURVE ( 'NONE', #285, #67, #23, .T. ) ;
#10 = DIRECTION ( 'NONE',  ( 0.000000000000000000, 0.000000000000000000, 1.000000000000000000 ) ) ;
#11 = DIRECTION ( 'NONE',  ( -0.000000000000000000, -0.000000000000000000, -1.000000000000000000 ) ) ;
#12 = APPROVAL_DATE_TIME ( #249, #302 ) ;
#13 = APPROVAL_PERSON_ORGANIZATION ( #234, #245, #55 ) ;
#14 = CARTESIAN_POINT ( 'NONE',  ( 0.000000000000000000, 0.000000000000000000, 7.200000000000011724 ) ) ;
#15 = MANIFOLD_SOLID_BREP ( 'Zaoblit1', #156 ) ;
#16 = AXIS2_PLACEMENT_3D ( 'NONE', #208, #1, #259 ) ;
#17 = FACE_OUTER_BOUND ( 'NONE', #26, .T. ) ;
#18 = PERSON_AND_ORGANIZATION_ROLE ( 'creator' ) ;
#19 = CARTESIAN_POINT ( 'NONE',  ( 6.299999999999998934, 0.000000000000000000, 7.000000000000006217 ) ) ;
#20 = APPROVAL_STATUS ( 'not_yet_approved' ) ;
#21 = ADVANCED_FACE ( 'NONE', ( #31 ), #213, .T. ) ;
#22 = VERTEX_POINT ( 'NONE', #51 ) ;
#23 = CIRCLE ( 'NONE', #88, 0.1999999999999996503 ) ;
#24 = ORIENTED_EDGE ( 'NONE', *, *, #209, .F. ) ;
#25 = DIRECTION ( 'NONE',  ( -1.000000000000000000, 0.000000000000000000, 0.000000000000000000 ) ) ;
#26 = EDGE_LOOP ( 'NONE', ( #162, #267, #210, #286 ) ) ;
#27 = PRODUCT_DEFINITION_FORMATION_WITH_SPECIFIED_SOURCE ( 'LIBOVOLNÝ', '', #253, .NOT_KNOWN. ) ;
#28 = ADVANCED_FACE ( 'NONE', ( #143 ), #187, .T. ) ;
#29 = DIRECTION ( 'NONE',  ( -0.000000000000000000, -0.000000000000000000, -1.000000000000000000 ) ) ;
#30 = VERTEX_POINT ( 'NONE', #165 ) ;
#31 = FACE_OUTER_BOUND ( 'NONE', #125, .T. ) ;
#32 = DIRECTION ( 'NONE',  ( 1.000000000000000000, 0.000000000000000000, 0.000000000000000000 ) ) ;
#33 = DIRECTION ( 'NONE',  ( 0.000000000000000000, 0.000000000000000000, 1.000000000000000000 ) ) ;
#34 = CARTESIAN_POINT ( 'NONE',  ( 0.000000000000000000, 0.000000000000000000, 167.0000000000000000 ) ) ;
#35 = APPROVAL_STATUS ( 'not_yet_approved' ) ;
#36 = DIRECTION ( 'NONE',  ( 1.000000000000000000, 0.000000000000000000, 0.000000000000000000 ) ) ;
#37 = AXIS2_PLACEMENT_3D ( 'NONE', #14, #195, #268 ) ;
#38 = DIRECTION ( 'NONE',  ( 0.000000000000000000, 0.000000000000000000, 1.000000000000000000 ) ) ;
#39 = CC_DESIGN_DATE_AND_TIME_ASSIGNMENT ( #266, #260, ( #68 ) ) ;
#40 = CC_DESIGN_APPROVAL ( #96, ( #140 ) ) ;
#41 = AXIS2_PLACEMENT_3D ( 'NONE', #274, #197, #114 ) ;
#42 = CARTESIAN_POINT ( 'NONE',  ( 0.000000000000000000, 0.000000000000000000, 7.000000000000000000 ) ) ;
#43 = COORDINATED_UNIVERSAL_TIME_OFFSET ( 1, 0, .AHEAD. ) ;
#44 = ORIENTED_EDGE ( 'NONE', *, *, #220, .T. ) ;
#45 = EDGE_CURVE ( 'NONE', #22, #30, #141, .T. ) ;
#46 = PRODUCT_DEFINITION_SHAPE ( 'NONE', 'NONE',  #140 ) ;
#47 = VERTEX_POINT ( 'NONE', #190 ) ;
#48 = AXIS2_PLACEMENT_3D ( 'NONE', #177, #273, #217 ) ;
#49 = ORIENTED_EDGE ( 'NONE', *, *, #257, .T. ) ;
#50 = ORIENTED_EDGE ( 'NONE', *, *, #146, .T. ) ;
#51 = CARTESIAN_POINT ( 'NONE',  ( -9.000000000000000000, 0.000000000000000000, 7.000000000000000000 ) ) ;
#52 = APPROVAL_PERSON_ORGANIZATION ( #224, #302, #158 ) ;
#53 = CARTESIAN_POINT ( 'NONE',  ( 0.000000000000000000, 0.000000000000000000, 0.000000000000000000 ) ) ;
#54 = AXIS2_PLACEMENT_3D ( 'NONE', #62, #154, #276 ) ;
#55 = APPROVAL_ROLE ( '' ) ;
#56 = CARTESIAN_POINT ( 'NONE',  ( 0.000000000000000000, 0.000000000000000000, 7.000000000000000000 ) ) ;
#57 = APPROVAL_ROLE ( '' ) ;
#58 = PLANE ( 'NONE',  #117 ) ;
#59 = PERSON_AND_ORGANIZATION ( #258, #229 ) ;
#60 = CYLINDRICAL_SURFACE ( 'NONE', #227, 9.000000000000000000 ) ;
#61 = DATE_AND_TIME ( #135, #6 ) ;
#62 = CARTESIAN_POINT ( 'NONE',  ( 0.000000000000000000, 0.000000000000000000, 7.200000000000011724 ) ) ;
#63 = APPROVAL_STATUS ( 'not_yet_approved' ) ;
#64 = DIRECTION ( 'NONE',  ( 0.000000000000000000, 0.000000000000000000, 1.000000000000000000 ) ) ;
#65 = ORIENTED_EDGE ( 'NONE', *, *, #150, .F. ) ;
#66 = EDGE_LOOP ( 'NONE', ( #71, #102, #193, #44 ) ) ;
#67 = VERTEX_POINT ( 'NONE', #69 ) ;
#68 = SECURITY_CLASSIFICATION ( '', '', #79 ) ;
#69 = CARTESIAN_POINT ( 'NONE',  ( -6.299999999999998934, 7.715274834628324392E-16, 7.000000000000006217 ) ) ;
#70 = EDGE_CURVE ( 'NONE', #22, #94, #75, .T. ) ;
#71 = ORIENTED_EDGE ( 'NONE', *, *, #198, .F. ) ;
#72 = ORIENTED_EDGE ( 'NONE', *, *, #188, .F. ) ;
#73 = CIRCLE ( 'NONE', #243, 0.1999999999999996503 ) ;
#74 = CARTESIAN_POINT ( 'NONE',  ( 0.000000000000000000, 0.000000000000000000, 167.0000000000000000 ) ) ;
#75 = LINE ( 'NONE', #7, #255 ) ;
#76 = DIRECTION ( 'NONE',  ( 0.000000000000000000, 0.000000000000000000, 1.000000000000000000 ) ) ;
#77 = FACE_OUTER_BOUND ( 'NONE', #305, .T. ) ;
#78 = CC_DESIGN_PERSON_AND_ORGANIZATION_ASSIGNMENT ( #196, #293, ( #27 ) ) ;
#79 = SECURITY_CLASSIFICATION_LEVEL ( 'unclassified' ) ;
#80 = CC_DESIGN_PERSON_AND_ORGANIZATION_ASSIGNMENT ( #59, #18, ( #27 ) ) ;
#81 = FACE_BOUND ( 'NONE', #142, .T. ) ;
#82 = COORDINATED_UNIVERSAL_TIME_OFFSET ( 1, 0, .AHEAD. ) ;
#83 = FACE_OUTER_BOUND ( 'NONE', #66, .T. ) ;
#84 = ADVANCED_FACE ( 'NONE', ( #97 ), #4, .T. ) ;
#85 = APPROVAL_DATE_TIME ( #278, #245 ) ;
#86 = CC_DESIGN_APPROVAL ( #302, ( #27 ) ) ;
#87 = DIRECTION ( 'NONE',  ( 0.000000000000000000, -1.000000000000000000, 0.000000000000000000 ) ) ;
#88 = AXIS2_PLACEMENT_3D ( 'NONE', #288, #105, #128 ) ;
#89 = DATE_AND_TIME ( #300, #169 ) ;
#90 = COORDINATED_UNIVERSAL_TIME_OFFSET ( 1, 0, .AHEAD. ) ;
#91 =( NAMED_UNIT ( * ) SI_UNIT ( $, .STERADIAN. ) SOLID_ANGLE_UNIT ( ) );
#92 = CC_DESIGN_SECURITY_CLASSIFICATION ( #68, ( #27 ) ) ;
#93 = EDGE_LOOP ( 'NONE', ( #280, #168, #211, #172 ) ) ;
#94 = VERTEX_POINT ( 'NONE', #124 ) ;
#95 = CALENDAR_DATE ( 2022, 20, 6 ) ;
#96 = APPROVAL ( #63, 'NEURÈENÝ' ) ;
#97 = FACE_OUTER_BOUND ( 'NONE', #205, .T. ) ;
#98 = EDGE_CURVE ( 'NONE', #166, #307, #164, .T. ) ;
#99 = VECTOR ( 'NONE', #295, 1000.000000000000000 ) ;
#100 = ORIENTED_EDGE ( 'NONE', *, *, #269, .F. ) ;
#101 = ORIENTED_EDGE ( 'NONE', *, *, #238, .F. ) ;
#102 = ORIENTED_EDGE ( 'NONE', *, *, #45, .F. ) ;
#103 = AXIS2_PLACEMENT_3D ( 'NONE', #129, #287, #3 ) ;
#104 = CIRCLE ( 'NONE', #170, 9.000000000000000000 ) ;
#105 = DIRECTION ( 'NONE',  ( 1.224646799147353207E-16, 1.000000000000000000, -0.000000000000000000 ) ) ;
#106 = DIRECTION ( 'NONE',  ( 1.000000000000000000, 0.000000000000000000, 0.000000000000000000 ) ) ;
#107 = CARTESIAN_POINT ( 'NONE',  ( 0.000000000000000000, 0.000000000000000000, 0.000000000000000000 ) ) ;
#108 = CC_DESIGN_PERSON_AND_ORGANIZATION_ASSIGNMENT ( #225, #131, ( #253 ) ) ;
#109 = DATE_TIME_ROLE ( 'creation_date' ) ;
#110 = APPROVAL_PERSON_ORGANIZATION ( #222, #96, #57 ) ;
#111 = CYLINDRICAL_SURFACE ( 'NONE', #41, 6.099999999999999645 ) ;
#112 = UNCERTAINTY_MEASURE_WITH_UNIT (LENGTH_MEASURE( 1.000000000000000082E-05 ), #119, 'distance_accuracy_value', 'NONE');
#113 = APPLICATION_PROTOCOL_DEFINITION ( 'international standard', 'config_control_design', 1994, #203 ) ;
#114 = DIRECTION ( 'NONE',  ( -1.000000000000000000, 0.000000000000000000, 0.000000000000000000 ) ) ;
#115 = DIRECTION ( 'NONE',  ( 0.000000000000000000, 0.000000000000000000, -1.000000000000000000 ) ) ;
#116 = DIRECTION ( 'NONE',  ( 0.000000000000000000, 0.000000000000000000, 1.000000000000000000 ) ) ;
#117 = AXIS2_PLACEMENT_3D ( 'NONE', #53, #33, #241 ) ;
#118 = CARTESIAN_POINT ( 'NONE',  ( 0.000000000000000000, 0.000000000000000000, 0.000000000000000000 ) ) ;
#119 =( LENGTH_UNIT ( ) NAMED_UNIT ( * ) SI_UNIT ( .MILLI., .METRE. ) );
#120 = PRODUCT_RELATED_PRODUCT_CATEGORY ( 'detail', '', ( #253 ) ) ;
#121 = ORIENTED_EDGE ( 'NONE', *, *, #45, .T. ) ;
#122 = ORIENTED_EDGE ( 'NONE', *, *, #238, .T. ) ;
#123 = CC_DESIGN_DATE_AND_TIME_ASSIGNMENT ( #61, #109, ( #140 ) ) ;
#124 = CARTESIAN_POINT ( 'NONE',  ( -9.000000000000000000, 0.000000000000000000, 0.000000000000000000 ) ) ;
#125 = EDGE_LOOP ( 'NONE', ( #50, #183 ) ) ;
#126 = CIRCLE ( 'NONE', #294, 9.000000000000000000 ) ;
#127 = ORIENTED_EDGE ( 'NONE', *, *, #220, .F. ) ;
#128 = DIRECTION ( 'NONE',  ( -1.000000000000000000, 1.224646799147353454E-16, 0.000000000000000000 ) ) ;
#129 = CARTESIAN_POINT ( 'NONE',  ( 0.000000000000000000, 0.000000000000000000, 7.000000000000000000 ) ) ;
#130 = DIRECTION ( 'NONE',  ( 0.000000000000000000, 0.000000000000000000, 1.000000000000000000 ) ) ;
#131 = PERSON_AND_ORGANIZATION_ROLE ( 'design_owner' ) ;
#132 = DIRECTION ( 'NONE',  ( 1.000000000000000000, 0.000000000000000000, 0.000000000000000000 ) ) ;
#133 = LINE ( 'NONE', #218, #206 ) ;
#134 = DIRECTION ( 'NONE',  ( -1.000000000000000000, 0.000000000000000000, 0.000000000000000000 ) ) ;
#135 = CALENDAR_DATE ( 2022, 20, 6 ) ;
#136 = AXIS2_PLACEMENT_3D ( 'NONE', #107, #38, #239 ) ;
#137 = ADVANCED_FACE ( 'NONE', ( #194 ), #186, .F. ) ;
#138 = MECHANICAL_CONTEXT ( 'NONE', #289, 'mechanical' ) ;
#139 = AXIS2_PLACEMENT_3D ( 'NONE', #118, #116, #180 ) ;
#140 = PRODUCT_DEFINITION ( 'NEZNÁMÝ', '', #27, #242 ) ;
#141 = CIRCLE ( 'NONE', #8, 9.000000000000000000 ) ;
#142 = EDGE_LOOP ( 'NONE', ( #231, #256 ) ) ;
#143 = FACE_OUTER_BOUND ( 'NONE', #93, .T. ) ;
#144 = AXIS2_PLACEMENT_3D ( 'NONE', #42, #279, #182 ) ;
#145 = CC_DESIGN_APPROVAL ( #245, ( #68 ) ) ;
#146 = EDGE_CURVE ( 'NONE', #307, #166, #233, .T. ) ;
#147 = VERTEX_POINT ( 'NONE', #179 ) ;
#148 = EDGE_LOOP ( 'NONE', ( #121, #163 ) ) ;
#149 = EDGE_LOOP ( 'NONE', ( #65, #265, #303, #101 ) ) ;
#150 = EDGE_CURVE ( 'NONE', #285, #47, #282, .T. ) ;
#151 = FACE_OUTER_BOUND ( 'NONE', #148, .T. ) ;
#152 = CARTESIAN_POINT ( 'NONE',  ( 0.000000000000000000, 0.000000000000000000, 7.200000000000011724 ) ) ;
#153 = PERSON_AND_ORGANIZATION_ROLE ( 'classification_officer' ) ;
#154 = DIRECTION ( 'NONE',  ( 0.000000000000000000, 0.000000000000000000, 1.000000000000000000 ) ) ;
#155 = CARTESIAN_POINT ( 'NONE',  ( 0.000000000000000000, 0.000000000000000000, 7.000000000000000000 ) ) ;
#156 = CLOSED_SHELL ( 'NONE', ( #137, #237, #28, #251, #160, #181, #84, #21, #192 ) ) ;
#157 = DIRECTION ( 'NONE',  ( 1.000000000000000000, 0.000000000000000000, 0.000000000000000000 ) ) ;
#158 = APPROVAL_ROLE ( '' ) ;
#159 =( NAMED_UNIT ( * ) PLANE_ANGLE_UNIT ( ) SI_UNIT ( $, .RADIAN. ) );
#160 = ADVANCED_FACE ( 'NONE', ( #81, #151 ), #292, .T. ) ;
#161 = CIRCLE ( 'NONE', #144, 6.299999999999998934 ) ;
#162 = ORIENTED_EDGE ( 'NONE', *, *, #98, .F. ) ;
#163 = ORIENTED_EDGE ( 'NONE', *, *, #202, .T. ) ;
#164 = CIRCLE ( 'NONE', #16, 6.099999999999999645 ) ;
#165 = CARTESIAN_POINT ( 'NONE',  ( 9.000000000000000000, 1.102182119232617714E-15, 7.000000000000000000 ) ) ;
#166 = VERTEX_POINT ( 'NONE', #174 ) ;
#167 = EDGE_CURVE ( 'NONE', #228, #67, #304, .T. ) ;
#168 = ORIENTED_EDGE ( 'NONE', *, *, #198, .T. ) ;
#169 = LOCAL_TIME ( 11, 31, 15.00000000000000000, #240 ) ;
#170 = AXIS2_PLACEMENT_3D ( 'NONE', #271, #10, #106 ) ;
#171 = DIRECTION ( 'NONE',  ( -0.000000000000000000, -0.000000000000000000, -1.000000000000000000 ) ) ;
#172 = ORIENTED_EDGE ( 'NONE', *, *, #70, .F. ) ;
#173 = CC_DESIGN_PERSON_AND_ORGANIZATION_ASSIGNMENT ( #272, #153, ( #68 ) ) ;
#174 = CARTESIAN_POINT ( 'NONE',  ( 6.099999999999999645, 7.470345474798854293E-16, 167.0000000000000000 ) ) ;
#175 = VECTOR ( 'NONE', #298, 1000.000000000000000 ) ;
#176 = DIRECTION ( 'NONE',  ( 0.000000000000000000, 0.000000000000000000, 1.000000000000000000 ) ) ;
#177 = CARTESIAN_POINT ( 'NONE',  ( 0.000000000000000000, 0.000000000000000000, 7.000000000000000000 ) ) ;
#178 = CARTESIAN_POINT ( 'NONE',  ( 9.000000000000000000, 1.102182119232617714E-15, 7.000000000000000000 ) ) ;
#179 = CARTESIAN_POINT ( 'NONE',  ( 9.000000000000000000, 1.102182119232617714E-15, 0.000000000000000000 ) ) ;
#180 = DIRECTION ( 'NONE',  ( 1.000000000000000000, 0.000000000000000000, 0.000000000000000000 ) ) ;
#181 = ADVANCED_FACE ( 'NONE', ( #77 ), #58, .F. ) ;
#182 = DIRECTION ( 'NONE',  ( 1.000000000000000000, 0.000000000000000000, 0.000000000000000000 ) ) ;
#183 = ORIENTED_EDGE ( 'NONE', *, *, #98, .T. ) ;
#184 = AXIS2_PLACEMENT_3D ( 'NONE', #56, #130, #219 ) ;
#185 = DIRECTION ( 'NONE',  ( 1.000000000000000000, 0.000000000000000000, -0.000000000000000000 ) ) ;
#186 = TOROIDAL_SURFACE ( 'NONE', #54, 6.299999999999998934, 0.2000000000000000111 ) ;
#187 = CYLINDRICAL_SURFACE ( 'NONE', #103, 9.000000000000000000 ) ;
#188 = EDGE_CURVE ( 'NONE', #47, #285, #226, .T. ) ;
#189 = DIRECTION ( 'NONE',  ( 0.000000000000000000, 0.000000000000000000, 1.000000000000000000 ) ) ;
#190 = CARTESIAN_POINT ( 'NONE',  ( 6.099999999999999645, 7.470345474798854293E-16, 7.200000000000011724 ) ) ;
#191 = LOCAL_TIME ( 11, 31, 15.00000000000000000, #201 ) ;
#192 = ADVANCED_FACE ( 'NONE', ( #297 ), #264, .F. ) ;
#193 = ORIENTED_EDGE ( 'NONE', *, *, #70, .T. ) ;
#194 = FACE_OUTER_BOUND ( 'NONE', #149, .T. ) ;
#195 = DIRECTION ( 'NONE',  ( 0.000000000000000000, 0.000000000000000000, 1.000000000000000000 ) ) ;
#196 = PERSON_AND_ORGANIZATION ( #258, #229 ) ;
#197 = DIRECTION ( 'NONE',  ( -0.000000000000000000, -0.000000000000000000, -1.000000000000000000 ) ) ;
#198 = EDGE_CURVE ( 'NONE', #30, #147, #221, .T. ) ;
#199 = CARTESIAN_POINT ( 'NONE',  ( 6.299999999999998934, 0.000000000000000000, 7.200000000000011724 ) ) ;
#200 = CARTESIAN_POINT ( 'NONE',  ( -6.099999999999999645, 0.000000000000000000, 167.0000000000000000 ) ) ;
#201 = COORDINATED_UNIVERSAL_TIME_OFFSET ( 1, 0, .AHEAD. ) ;
#202 = EDGE_CURVE ( 'NONE', #30, #22, #104, .T. ) ;
#203 = APPLICATION_CONTEXT ( 'configuration controlled 3d designs of mechanical parts and assemblies' ) ;
#204 = CARTESIAN_POINT ( 'NONE',  ( 0.000000000000000000, 0.000000000000000000, 0.000000000000000000 ) ) ;
#205 = EDGE_LOOP ( 'NONE', ( #24, #207, #49, #283 ) ) ;
#206 = VECTOR ( 'NONE', #11, 1000.000000000000000 ) ;
#207 = ORIENTED_EDGE ( 'NONE', *, *, #146, .F. ) ;
#208 = CARTESIAN_POINT ( 'NONE',  ( 0.000000000000000000, 0.000000000000000000, 167.0000000000000000 ) ) ;
#209 = EDGE_CURVE ( 'NONE', #166, #47, #133, .T. ) ;
#210 = ORIENTED_EDGE ( 'NONE', *, *, #188, .T. ) ;
#211 = ORIENTED_EDGE ( 'NONE', *, *, #269, .T. ) ;
#212 = CARTESIAN_POINT ( 'NONE',  ( 0.000000000000000000, 0.000000000000000000, 7.000000000000000000 ) ) ;
#213 = PLANE ( 'NONE',  #2 ) ;
#214 =( GEOMETRIC_REPRESENTATION_CONTEXT ( 3 ) GLOBAL_UNCERTAINTY_ASSIGNED_CONTEXT ( ( #112 ) ) GLOBAL_UNIT_ASSIGNED_CONTEXT ( ( #119, #159, #91 ) ) REPRESENTATION_CONTEXT ( 'NONE', 'WORKASPACE' ) );
#215 = ADVANCED_BREP_SHAPE_REPRESENTATION ( 'da47', ( #15, #139 ), #214 ) ;
#216 = AXIS2_PLACEMENT_3D ( 'NONE', #34, #291, #32 ) ;
#217 = DIRECTION ( 'NONE',  ( 1.000000000000000000, 0.000000000000000000, 0.000000000000000000 ) ) ;
#218 = CARTESIAN_POINT ( 'NONE',  ( 6.099999999999999645, 7.470345474798854293E-16, 167.0000000000000000 ) ) ;
#219 = DIRECTION ( 'NONE',  ( 1.000000000000000000, 0.000000000000000000, -0.000000000000000000 ) ) ;
#220 = EDGE_CURVE ( 'NONE', #94, #147, #250, .T. ) ;
#221 = LINE ( 'NONE', #178, #99 ) ;
#222 = PERSON_AND_ORGANIZATION ( #258, #229 ) ;
#223 = LINE ( 'NONE', #200, #175 ) ;
#224 = PERSON_AND_ORGANIZATION ( #258, #229 ) ;
#225 = PERSON_AND_ORGANIZATION ( #258, #229 ) ;
#226 = CIRCLE ( 'NONE', #270, 6.099999999999999645 ) ;
#227 = AXIS2_PLACEMENT_3D ( 'NONE', #155, #244, #134 ) ;
#228 = VERTEX_POINT ( 'NONE', #19 ) ;
#229 = ORGANIZATION ( 'NEURÈENÝ', 'NEURÈENÝ', '' ) ;
#230 = DIRECTION ( 'NONE',  ( 0.000000000000000000, 0.000000000000000000, 1.000000000000000000 ) ) ;
#231 = ORIENTED_EDGE ( 'NONE', *, *, #167, .T. ) ;
#232 = EDGE_LOOP ( 'NONE', ( #261, #72, #122, #263 ) ) ;
#233 = CIRCLE ( 'NONE', #216, 6.099999999999999645 ) ;
#234 = PERSON_AND_ORGANIZATION ( #258, #229 ) ;
#235 = CARTESIAN_POINT ( 'NONE',  ( 0.000000000000000000, 0.000000000000000000, 7.200000000000011724 ) ) ;
#236 = APPROVAL_DATE_TIME ( #89, #96 ) ;
#237 = ADVANCED_FACE ( 'NONE', ( #17 ), #111, .T. ) ;
#238 = EDGE_CURVE ( 'NONE', #47, #228, #73, .T. ) ;
#239 = DIRECTION ( 'NONE',  ( 1.000000000000000000, 0.000000000000000000, 0.000000000000000000 ) ) ;
#240 = COORDINATED_UNIVERSAL_TIME_OFFSET ( 1, 0, .AHEAD. ) ;
#241 = DIRECTION ( 'NONE',  ( 1.000000000000000000, 0.000000000000000000, -0.000000000000000000 ) ) ;
#242 = DESIGN_CONTEXT ( 'detailed design', #203, 'design' ) ;
#243 = AXIS2_PLACEMENT_3D ( 'NONE', #199, #87, #115 ) ;
#244 = DIRECTION ( 'NONE',  ( -0.000000000000000000, -0.000000000000000000, -1.000000000000000000 ) ) ;
#245 = APPROVAL ( #35, 'NEURÈENÝ' ) ;
#246 = PERSON_AND_ORGANIZATION ( #258, #229 ) ;
#247 = SHAPE_DEFINITION_REPRESENTATION ( #46, #215 ) ;
#248 = CARTESIAN_POINT ( 'NONE',  ( -6.099999999999999645, 0.000000000000000000, 7.200000000000011724 ) ) ;
#249 = DATE_AND_TIME ( #277, #191 ) ;
#250 = CIRCLE ( 'NONE', #136, 9.000000000000000000 ) ;
#251 = ADVANCED_FACE ( 'NONE', ( #83 ), #60, .T. ) ;
#252 = CALENDAR_DATE ( 2022, 20, 6 ) ;
#253 = PRODUCT ( 'da47', 'da47', '', ( #138 ) ) ;
#254 = LOCAL_TIME ( 11, 31, 15.00000000000000000, #43 ) ;
#255 = VECTOR ( 'NONE', #29, 1000.000000000000000 ) ;
#256 = ORIENTED_EDGE ( 'NONE', *, *, #306, .T. ) ;
#257 = EDGE_CURVE ( 'NONE', #307, #285, #223, .T. ) ;
#258 = PERSON ( 'NEURÈENÝ', 'NEURÈENÝ', 'NEURÈENÝ', ('NEURÈENÝ'), ('NEURÈENÝ'), ('NEURÈENÝ') ) ;
#259 = DIRECTION ( 'NONE',  ( 1.000000000000000000, 0.000000000000000000, 0.000000000000000000 ) ) ;
#260 = DATE_TIME_ROLE ( 'classification_date' ) ;
#261 = ORIENTED_EDGE ( 'NONE', *, *, #9, .F. ) ;
#262 = LOCAL_TIME ( 11, 31, 15.00000000000000000, #90 ) ;
#263 = ORIENTED_EDGE ( 'NONE', *, *, #306, .F. ) ;
#264 = TOROIDAL_SURFACE ( 'NONE', #284, 6.299999999999998934, 0.2000000000000000111 ) ;
#265 = ORIENTED_EDGE ( 'NONE', *, *, #9, .T. ) ;
#266 = DATE_AND_TIME ( #95, #254 ) ;
#267 = ORIENTED_EDGE ( 'NONE', *, *, #209, .T. ) ;
#268 = DIRECTION ( 'NONE',  ( 1.000000000000000000, 0.000000000000000000, 0.000000000000000000 ) ) ;
#269 = EDGE_CURVE ( 'NONE', #147, #94, #126, .T. ) ;
#270 = AXIS2_PLACEMENT_3D ( 'NONE', #152, #76, #132 ) ;
#271 = CARTESIAN_POINT ( 'NONE',  ( 0.000000000000000000, 0.000000000000000000, 7.000000000000000000 ) ) ;
#272 = PERSON_AND_ORGANIZATION ( #258, #229 ) ;
#273 = DIRECTION ( 'NONE',  ( -0.000000000000000000, -0.000000000000000000, -1.000000000000000000 ) ) ;
#274 = CARTESIAN_POINT ( 'NONE',  ( 0.000000000000000000, 0.000000000000000000, 167.0000000000000000 ) ) ;
#275 = AXIS2_PLACEMENT_3D ( 'NONE', #74, #171, #25 ) ;
#276 = DIRECTION ( 'NONE',  ( 1.000000000000000000, 0.000000000000000000, 0.000000000000000000 ) ) ;
#277 = CALENDAR_DATE ( 2022, 20, 6 ) ;
#278 = DATE_AND_TIME ( #252, #262 ) ;
#279 = DIRECTION ( 'NONE',  ( -0.000000000000000000, -0.000000000000000000, -1.000000000000000000 ) ) ;
#280 = ORIENTED_EDGE ( 'NONE', *, *, #202, .F. ) ;
#281 = CC_DESIGN_PERSON_AND_ORGANIZATION_ASSIGNMENT ( #246, #296, ( #140 ) ) ;
#282 = CIRCLE ( 'NONE', #37, 6.099999999999999645 ) ;
#283 = ORIENTED_EDGE ( 'NONE', *, *, #150, .T. ) ;
#284 = AXIS2_PLACEMENT_3D ( 'NONE', #235, #176, #36 ) ;
#285 = VERTEX_POINT ( 'NONE', #248 ) ;
#286 = ORIENTED_EDGE ( 'NONE', *, *, #257, .F. ) ;
#287 = DIRECTION ( 'NONE',  ( -0.000000000000000000, -0.000000000000000000, -1.000000000000000000 ) ) ;
#288 = CARTESIAN_POINT ( 'NONE',  ( -6.299999999999998934, 7.715274834628324392E-16, 7.200000000000011724 ) ) ;
#289 = APPLICATION_CONTEXT ( 'configuration controlled 3d designs of mechanical parts and assemblies' ) ;
#290 = CARTESIAN_POINT ( 'NONE',  ( 0.000000000000000000, 0.000000000000000000, 167.0000000000000000 ) ) ;
#291 = DIRECTION ( 'NONE',  ( 0.000000000000000000, 0.000000000000000000, 1.000000000000000000 ) ) ;
#292 = PLANE ( 'NONE',  #184 ) ;
#293 = PERSON_AND_ORGANIZATION_ROLE ( 'design_supplier' ) ;
#294 = AXIS2_PLACEMENT_3D ( 'NONE', #204, #64, #157 ) ;
#295 = DIRECTION ( 'NONE',  ( -0.000000000000000000, -0.000000000000000000, -1.000000000000000000 ) ) ;
#296 = PERSON_AND_ORGANIZATION_ROLE ( 'creator' ) ;
#297 = FACE_OUTER_BOUND ( 'NONE', #232, .T. ) ;
#298 = DIRECTION ( 'NONE',  ( -0.000000000000000000, -0.000000000000000000, -1.000000000000000000 ) ) ;
#299 = CARTESIAN_POINT ( 'NONE',  ( -6.099999999999999645, 0.000000000000000000, 167.0000000000000000 ) ) ;
#300 = CALENDAR_DATE ( 2022, 20, 6 ) ;
#301 = APPLICATION_PROTOCOL_DEFINITION ( 'international standard', 'config_control_design', 1994, #289 ) ;
#302 = APPROVAL ( #20, 'NEURÈENÝ' ) ;
#303 = ORIENTED_EDGE ( 'NONE', *, *, #167, .F. ) ;
#304 = CIRCLE ( 'NONE', #48, 6.299999999999998934 ) ;
#305 = EDGE_LOOP ( 'NONE', ( #127, #100 ) ) ;
#306 = EDGE_CURVE ( 'NONE', #67, #228, #161, .T. ) ;
#307 = VERTEX_POINT ( 'NONE', #299 ) ;
ENDSEC;
END-ISO-10303-21;
