ISO-10303-21;
HEADER;
FILE_DESCRIPTION (( 'STEP AP203' ),
    '1' );
FILE_NAME ('cbb9.STEP',
    '2022-06-20T09:51:32',
    ( '' ),
    ( '' ),
    'SwSTEP 2.0',
    'SolidWorks 2019',
    '' );
FILE_SCHEMA (( 'CONFIG_CONTROL_DESIGN' ));
ENDSEC;

DATA;
#1 = CC_DESIGN_PERSON_AND_ORGANIZATION_ASSIGNMENT ( #142, #67, ( #13 ) ) ;
#2 = PLANE ( 'NONE',  #269 ) ;
#3 = CIRCLE ( 'NONE', #177, 6.000000000000000888 ) ;
#4 = AXIS2_PLACEMENT_3D ( 'NONE', #300, #282, #192 ) ;
#5 = DIRECTION ( 'NONE',  ( 0.000000000000000000, 0.000000000000000000, 1.000000000000000000 ) ) ;
#6 = CARTESIAN_POINT ( 'NONE',  ( 0.000000000000000000, 0.000000000000000000, 1004.999999999999886 ) ) ;
#7 = PRODUCT_RELATED_PRODUCT_CATEGORY ( 'detail', '', ( #257 ) ) ;
#8 = APPROVAL_PERSON_ORGANIZATION ( #298, #44, #169 ) ;
#9 = ORIENTED_EDGE ( 'NONE', *, *, #106, .T. ) ;
#10 = EDGE_CURVE ( 'NONE', #207, #209, #263, .T. ) ;
#11 = ORIENTED_EDGE ( 'NONE', *, *, #218, .F. ) ;
#12 = AXIS2_PLACEMENT_3D ( 'NONE', #135, #230, #18 ) ;
#13 = PRODUCT_DEFINITION_FORMATION_WITH_SPECIFIED_SOURCE ( 'LIBOVOLNÝ', '', #257, .NOT_KNOWN. ) ;
#14 = ORIENTED_EDGE ( 'NONE', *, *, #27, .F. ) ;
#15 = ORIENTED_EDGE ( 'NONE', *, *, #63, .F. ) ;
#16 = AXIS2_PLACEMENT_3D ( 'NONE', #94, #175, #220 ) ;
#17 = VECTOR ( 'NONE', #173, 1000.000000000000000 ) ;
#18 = DIRECTION ( 'NONE',  ( 1.000000000000000000, 0.000000000000000000, 0.000000000000000000 ) ) ;
#19 = DATE_AND_TIME ( #196, #163 ) ;
#20 = CIRCLE ( 'NONE', #96, 6.000000000000000888 ) ;
#21 = SHAPE_DEFINITION_REPRESENTATION ( #146, #290 ) ;
#22 = DIRECTION ( 'NONE',  ( 0.000000000000000000, 0.000000000000000000, 1.000000000000000000 ) ) ;
#23 = CC_DESIGN_PERSON_AND_ORGANIZATION_ASSIGNMENT ( #134, #194, ( #13 ) ) ;
#24 = DIRECTION ( 'NONE',  ( -0.000000000000000000, -0.000000000000000000, -1.000000000000000000 ) ) ;
#25 = CALENDAR_DATE ( 2022, 20, 6 ) ;
#26 = LINE ( 'NONE', #285, #17 ) ;
#27 = EDGE_CURVE ( 'NONE', #102, #129, #305, .T. ) ;
#28 = APPROVAL_STATUS ( 'not_yet_approved' ) ;
#29 = DIRECTION ( 'NONE',  ( -0.000000000000000000, -0.000000000000000000, -1.000000000000000000 ) ) ;
#30 =( NAMED_UNIT ( * ) PLANE_ANGLE_UNIT ( ) SI_UNIT ( $, .RADIAN. ) );
#31 = DIRECTION ( 'NONE',  ( -1.000000000000000000, 0.000000000000000000, 0.000000000000000000 ) ) ;
#32 = APPLICATION_CONTEXT ( 'configuration controlled 3d designs of mechanical parts and assemblies' ) ;
#33 = CARTESIAN_POINT ( 'NONE',  ( 0.000000000000000000, 0.000000000000000000, 1004.999999999999886 ) ) ;
#34 = CIRCLE ( 'NONE', #88, 3.500000000000000000 ) ;
#35 = ORIENTED_EDGE ( 'NONE', *, *, #27, .T. ) ;
#36 = AXIS2_PLACEMENT_3D ( 'NONE', #297, #216, #112 ) ;
#37 = EDGE_CURVE ( 'NONE', #40, #209, #133, .T. ) ;
#38 = ORIENTED_EDGE ( 'NONE', *, *, #10, .F. ) ;
#39 = ORIENTED_EDGE ( 'NONE', *, *, #264, .F. ) ;
#40 = VERTEX_POINT ( 'NONE', #304 ) ;
#41 = CARTESIAN_POINT ( 'NONE',  ( 6.000000000000000888, 7.347880794884120722E-16, 0.000000000000000000 ) ) ;
#42 = APPROVAL_DATE_TIME ( #69, #44 ) ;
#43 = CARTESIAN_POINT ( 'NONE',  ( 0.000000000000000000, 0.000000000000000000, 5.000000000000000000 ) ) ;
#44 = APPROVAL ( #306, 'NEURÈENÝ' ) ;
#45 = CARTESIAN_POINT ( 'NONE',  ( -3.500000000000000000, 0.000000000000000000, 1004.999999999999886 ) ) ;
#46 = PERSON_AND_ORGANIZATION_ROLE ( 'creator' ) ;
#47 = FACE_OUTER_BOUND ( 'NONE', #179, .T. ) ;
#48 = CARTESIAN_POINT ( 'NONE',  ( 3.500000000000000000, 4.286263797015736595E-16, 1004.999999999999886 ) ) ;
#49 = APPROVAL_STATUS ( 'not_yet_approved' ) ;
#50 = DIRECTION ( 'NONE',  ( 0.000000000000000000, 0.000000000000000000, 1.000000000000000000 ) ) ;
#51 = DIRECTION ( 'NONE',  ( 0.000000000000000000, 0.000000000000000000, 1.000000000000000000 ) ) ;
#52 =( LENGTH_UNIT ( ) NAMED_UNIT ( * ) SI_UNIT ( .MILLI., .METRE. ) );
#53 = ORIENTED_EDGE ( 'NONE', *, *, #54, .T. ) ;
#54 = EDGE_CURVE ( 'NONE', #184, #40, #172, .T. ) ;
#55 = ORIENTED_EDGE ( 'NONE', *, *, #191, .T. ) ;
#56 = AXIS2_PLACEMENT_3D ( 'NONE', #43, #24, #299 ) ;
#57 = EDGE_LOOP ( 'NONE', ( #181, #101 ) ) ;
#58 = ADVANCED_FACE ( 'NONE', ( #91 ), #109, .T. ) ;
#59 = ORIENTED_EDGE ( 'NONE', *, *, #118, .F. ) ;
#60 = CARTESIAN_POINT ( 'NONE',  ( 0.000000000000000000, 0.000000000000000000, 1004.999999999999886 ) ) ;
#61 = PERSON_AND_ORGANIZATION ( #99, #148 ) ;
#62 = DIRECTION ( 'NONE',  ( 1.000000000000000000, 0.000000000000000000, 0.000000000000000000 ) ) ;
#63 = EDGE_CURVE ( 'NONE', #81, #215, #212, .T. ) ;
#64 = DIRECTION ( 'NONE',  ( -0.000000000000000000, -0.000000000000000000, -1.000000000000000000 ) ) ;
#65 = APPROVAL_DATE_TIME ( #255, #153 ) ;
#66 = DIRECTION ( 'NONE',  ( 0.000000000000000000, 0.000000000000000000, 1.000000000000000000 ) ) ;
#67 = PERSON_AND_ORGANIZATION_ROLE ( 'design_supplier' ) ;
#68 = DIRECTION ( 'NONE',  ( -1.000000000000000000, 1.224646799147350742E-16, 0.000000000000000000 ) ) ;
#69 = DATE_AND_TIME ( #284, #178 ) ;
#70 = TOROIDAL_SURFACE ( 'NONE', #12, 3.700000000000000178, 0.2000000000000000111 ) ;
#71 = CARTESIAN_POINT ( 'NONE',  ( -3.700000000000000178, 4.531193156845206201E-16, 4.999999999999991118 ) ) ;
#72 = DIRECTION ( 'NONE',  ( 1.000000000000000000, 0.000000000000000000, 0.000000000000000000 ) ) ;
#73 = AXIS2_PLACEMENT_3D ( 'NONE', #187, #195, #62 ) ;
#74 = CARTESIAN_POINT ( 'NONE',  ( 0.000000000000000000, 0.000000000000000000, 5.000000000000000000 ) ) ;
#75 = LOCAL_TIME ( 11, 51, 32.00000000000000000, #258 ) ;
#76 = EDGE_CURVE ( 'NONE', #81, #184, #213, .T. ) ;
#77 = EDGE_LOOP ( 'NONE', ( #272, #154 ) ) ;
#78 = ORIENTED_EDGE ( 'NONE', *, *, #264, .T. ) ;
#79 = AXIS2_PLACEMENT_3D ( 'NONE', #93, #98, #31 ) ;
#80 = CC_DESIGN_APPROVAL ( #153, ( #214 ) ) ;
#81 = VERTEX_POINT ( 'NONE', #141 ) ;
#82 = CARTESIAN_POINT ( 'NONE',  ( 3.700000000000000178, 0.000000000000000000, 5.199999999999982414 ) ) ;
#83 = PERSON_AND_ORGANIZATION ( #99, #148 ) ;
#84 = DIRECTION ( 'NONE',  ( -1.000000000000000000, 0.000000000000000000, 0.000000000000000000 ) ) ;
#85 = EDGE_CURVE ( 'NONE', #253, #129, #20, .T. ) ;
#86 = DATE_TIME_ROLE ( 'creation_date' ) ;
#87 = CARTESIAN_POINT ( 'NONE',  ( 0.000000000000000000, 0.000000000000000000, 1004.999999999999886 ) ) ;
#88 = AXIS2_PLACEMENT_3D ( 'NONE', #60, #66, #160 ) ;
#89 = CARTESIAN_POINT ( 'NONE',  ( 0.000000000000000000, 0.000000000000000000, 0.000000000000000000 ) ) ;
#90 = APPROVAL_ROLE ( '' ) ;
#91 = FACE_OUTER_BOUND ( 'NONE', #155, .T. ) ;
#92 = COORDINATED_UNIVERSAL_TIME_OFFSET ( 1, 0, .AHEAD. ) ;
#93 = CARTESIAN_POINT ( 'NONE',  ( 0.000000000000000000, 0.000000000000000000, 5.000000000000000000 ) ) ;
#94 = CARTESIAN_POINT ( 'NONE',  ( 0.000000000000000000, 0.000000000000000000, 0.000000000000000000 ) ) ;
#95 = DIRECTION ( 'NONE',  ( 1.000000000000000000, 0.000000000000000000, -0.000000000000000000 ) ) ;
#96 = AXIS2_PLACEMENT_3D ( 'NONE', #89, #193, #165 ) ;
#97 = CC_DESIGN_DATE_AND_TIME_ASSIGNMENT ( #19, #86, ( #214 ) ) ;
#98 = DIRECTION ( 'NONE',  ( -0.000000000000000000, -0.000000000000000000, -1.000000000000000000 ) ) ;
#99 = PERSON ( 'NEURÈENÝ', 'NEURÈENÝ', 'NEURÈENÝ', ('NEURÈENÝ'), ('NEURÈENÝ'), ('NEURÈENÝ') ) ;
#100 = ORIENTED_EDGE ( 'NONE', *, *, #37, .F. ) ;
#101 = ORIENTED_EDGE ( 'NONE', *, *, #191, .F. ) ;
#102 = VERTEX_POINT ( 'NONE', #276 ) ;
#103 = ORIENTED_EDGE ( 'NONE', *, *, #171, .T. ) ;
#104 = DIRECTION ( 'NONE',  ( 0.000000000000000000, 0.000000000000000000, -1.000000000000000000 ) ) ;
#105 = AXIS2_PLACEMENT_3D ( 'NONE', #116, #5, #72 ) ;
#106 = EDGE_CURVE ( 'NONE', #215, #40, #283, .T. ) ;
#107 = DIRECTION ( 'NONE',  ( 0.000000000000000000, 0.000000000000000000, 1.000000000000000000 ) ) ;
#108 = APPLICATION_CONTEXT ( 'configuration controlled 3d designs of mechanical parts and assemblies' ) ;
#109 = CYLINDRICAL_SURFACE ( 'NONE', #208, 6.000000000000000888 ) ;
#110 = DIRECTION ( 'NONE',  ( -0.000000000000000000, -0.000000000000000000, -1.000000000000000000 ) ) ;
#111 = APPLICATION_PROTOCOL_DEFINITION ( 'international standard', 'config_control_design', 1994, #108 ) ;
#112 = DIRECTION ( 'NONE',  ( 1.000000000000000000, 0.000000000000000000, 0.000000000000000000 ) ) ;
#113 = DATE_TIME_ROLE ( 'classification_date' ) ;
#114 = FACE_OUTER_BOUND ( 'NONE', #157, .T. ) ;
#115 = APPLICATION_PROTOCOL_DEFINITION ( 'international standard', 'config_control_design', 1994, #32 ) ;
#116 = CARTESIAN_POINT ( 'NONE',  ( 0.000000000000000000, 0.000000000000000000, 5.000000000000000000 ) ) ;
#117 = AXIS2_PLACEMENT_3D ( 'NONE', #241, #286, #265 ) ;
#118 = EDGE_CURVE ( 'NONE', #184, #207, #151, .T. ) ;
#119 = DIRECTION ( 'NONE',  ( 1.000000000000000000, 0.000000000000000000, 0.000000000000000000 ) ) ;
#120 = CARTESIAN_POINT ( 'NONE',  ( 0.000000000000000000, 0.000000000000000000, 0.000000000000000000 ) ) ;
#121 = CARTESIAN_POINT ( 'NONE',  ( -3.500000000000000000, 0.000000000000000000, 1004.999999999999886 ) ) ;
#122 = CC_DESIGN_PERSON_AND_ORGANIZATION_ASSIGNMENT ( #83, #46, ( #214 ) ) ;
#123 = ORIENTED_EDGE ( 'NONE', *, *, #106, .F. ) ;
#124 = ORIENTED_EDGE ( 'NONE', *, *, #268, .T. ) ;
#125 = ADVANCED_FACE ( 'NONE', ( #47 ), #280, .T. ) ;
#126 = ORIENTED_EDGE ( 'NONE', *, *, #268, .F. ) ;
#127 = VERTEX_POINT ( 'NONE', #259 ) ;
#128 = EDGE_CURVE ( 'NONE', #215, #81, #34, .T. ) ;
#129 = VERTEX_POINT ( 'NONE', #41 ) ;
#130 = AXIS2_PLACEMENT_3D ( 'NONE', #33, #29, #222 ) ;
#131 = COORDINATED_UNIVERSAL_TIME_OFFSET ( 1, 0, .AHEAD. ) ;
#132 = FACE_OUTER_BOUND ( 'NONE', #182, .T. ) ;
#133 = CIRCLE ( 'NONE', #224, 0.2000000000000000944 ) ;
#134 = PERSON_AND_ORGANIZATION ( #99, #148 ) ;
#135 = CARTESIAN_POINT ( 'NONE',  ( 0.000000000000000000, 0.000000000000000000, 5.199999999999982414 ) ) ;
#136 = PERSON_AND_ORGANIZATION ( #99, #148 ) ;
#137 = DIRECTION ( 'NONE',  ( 1.000000000000000000, 0.000000000000000000, 0.000000000000000000 ) ) ;
#138 = AXIS2_PLACEMENT_3D ( 'NONE', #235, #22, #137 ) ;
#139 =( GEOMETRIC_REPRESENTATION_CONTEXT ( 3 ) GLOBAL_UNCERTAINTY_ASSIGNED_CONTEXT ( ( #159 ) ) GLOBAL_UNIT_ASSIGNED_CONTEXT ( ( #52, #30, #150 ) ) REPRESENTATION_CONTEXT ( 'NONE', 'WORKASPACE' ) );
#140 = PERSON_AND_ORGANIZATION ( #99, #148 ) ;
#141 = CARTESIAN_POINT ( 'NONE',  ( 3.500000000000000000, 4.286263797015736595E-16, 1004.999999999999886 ) ) ;
#142 = PERSON_AND_ORGANIZATION ( #99, #148 ) ;
#143 = VECTOR ( 'NONE', #64, 1000.000000000000000 ) ;
#144 = FACE_BOUND ( 'NONE', #188, .T. ) ;
#145 = APPROVAL ( #28, 'NEURÈENÝ' ) ;
#146 = PRODUCT_DEFINITION_SHAPE ( 'NONE', 'NONE',  #214 ) ;
#147 = CARTESIAN_POINT ( 'NONE',  ( 3.700000000000000178, 0.000000000000000000, 4.999999999999991118 ) ) ;
#148 = ORGANIZATION ( 'NEURÈENÝ', 'NEURÈENÝ', '' ) ;
#149 = FACE_OUTER_BOUND ( 'NONE', #294, .T. ) ;
#150 =( NAMED_UNIT ( * ) SI_UNIT ( $, .STERADIAN. ) SOLID_ANGLE_UNIT ( ) );
#151 = CIRCLE ( 'NONE', #281, 0.1999999999999996503 ) ;
#152 = ADVANCED_FACE ( 'NONE', ( #132 ), #70, .F. ) ;
#153 = APPROVAL ( #49, 'NEURÈENÝ' ) ;
#154 = ORIENTED_EDGE ( 'NONE', *, *, #63, .T. ) ;
#155 = EDGE_LOOP ( 'NONE', ( #14, #11, #226, #185 ) ) ;
#156 = CC_DESIGN_SECURITY_CLASSIFICATION ( #303, ( #13 ) ) ;
#157 = EDGE_LOOP ( 'NONE', ( #271, #124 ) ) ;
#158 = CC_DESIGN_DATE_AND_TIME_ASSIGNMENT ( #161, #113, ( #303 ) ) ;
#159 = UNCERTAINTY_MEASURE_WITH_UNIT (LENGTH_MEASURE( 1.000000000000000082E-05 ), #52, 'distance_accuracy_value', 'NONE');
#160 = DIRECTION ( 'NONE',  ( 1.000000000000000000, 0.000000000000000000, 0.000000000000000000 ) ) ;
#161 = DATE_AND_TIME ( #25, #75 ) ;
#162 = CARTESIAN_POINT ( 'NONE',  ( 0.000000000000000000, 0.000000000000000000, 5.199999999999982414 ) ) ;
#163 = LOCAL_TIME ( 11, 51, 32.00000000000000000, #302 ) ;
#164 = SECURITY_CLASSIFICATION_LEVEL ( 'unclassified' ) ;
#165 = DIRECTION ( 'NONE',  ( 1.000000000000000000, 0.000000000000000000, 0.000000000000000000 ) ) ;
#166 = CARTESIAN_POINT ( 'NONE',  ( 0.000000000000000000, 0.000000000000000000, 5.000000000000000000 ) ) ;
#167 = PERSON_AND_ORGANIZATION_ROLE ( 'classification_officer' ) ;
#168 = DIRECTION ( 'NONE',  ( 1.224646799147353207E-16, 1.000000000000000000, -0.000000000000000000 ) ) ;
#169 = APPROVAL_ROLE ( '' ) ;
#170 = CYLINDRICAL_SURFACE ( 'NONE', #79, 6.000000000000000888 ) ;
#171 = EDGE_CURVE ( 'NONE', #40, #184, #199, .T. ) ;
#172 = CIRCLE ( 'NONE', #36, 3.500000000000000000 ) ;
#173 = DIRECTION ( 'NONE',  ( -0.000000000000000000, -0.000000000000000000, -1.000000000000000000 ) ) ;
#174 = AXIS2_PLACEMENT_3D ( 'NONE', #87, #210, #211 ) ;
#175 = DIRECTION ( 'NONE',  ( 0.000000000000000000, 0.000000000000000000, 1.000000000000000000 ) ) ;
#176 = ORIENTED_EDGE ( 'NONE', *, *, #37, .T. ) ;
#177 = AXIS2_PLACEMENT_3D ( 'NONE', #74, #288, #119 ) ;
#178 = LOCAL_TIME ( 11, 51, 32.00000000000000000, #92 ) ;
#179 = EDGE_LOOP ( 'NONE', ( #293, #225, #9, #103 ) ) ;
#180 = ADVANCED_FACE ( 'NONE', ( #256 ), #260, .F. ) ;
#181 = ORIENTED_EDGE ( 'NONE', *, *, #85, .F. ) ;
#182 = EDGE_LOOP ( 'NONE', ( #100, #227, #273, #39 ) ) ;
#183 = CIRCLE ( 'NONE', #16, 6.000000000000000888 ) ;
#184 = VERTEX_POINT ( 'NONE', #301 ) ;
#185 = ORIENTED_EDGE ( 'NONE', *, *, #85, .T. ) ;
#186 = CALENDAR_DATE ( 2022, 20, 6 ) ;
#187 = CARTESIAN_POINT ( 'NONE',  ( 0.000000000000000000, 0.000000000000000000, 1004.999999999999886 ) ) ;
#188 = EDGE_LOOP ( 'NONE', ( #248, #78 ) ) ;
#189 = AXIS2_PLACEMENT_3D ( 'NONE', #162, #107, #233 ) ;
#190 = APPROVAL_PERSON_ORGANIZATION ( #136, #145, #277 ) ;
#191 = EDGE_CURVE ( 'NONE', #129, #253, #183, .T. ) ;
#192 = DIRECTION ( 'NONE',  ( 1.000000000000000000, 0.000000000000000000, 0.000000000000000000 ) ) ;
#193 = DIRECTION ( 'NONE',  ( 0.000000000000000000, 0.000000000000000000, 1.000000000000000000 ) ) ;
#194 = PERSON_AND_ORGANIZATION_ROLE ( 'creator' ) ;
#195 = DIRECTION ( 'NONE',  ( 0.000000000000000000, 0.000000000000000000, 1.000000000000000000 ) ) ;
#196 = CALENDAR_DATE ( 2022, 20, 6 ) ;
#197 = ADVANCED_FACE ( 'NONE', ( #223 ), #307, .T. ) ;
#198 = CARTESIAN_POINT ( 'NONE',  ( -6.000000000000000888, 0.000000000000000000, 0.000000000000000000 ) ) ;
#199 = CIRCLE ( 'NONE', #189, 3.500000000000000000 ) ;
#200 = CC_DESIGN_APPROVAL ( #145, ( #13 ) ) ;
#201 = FACE_OUTER_BOUND ( 'NONE', #77, .T. ) ;
#202 = CARTESIAN_POINT ( 'NONE',  ( 0.000000000000000000, 0.000000000000000000, 5.000000000000000000 ) ) ;
#203 = PLANE ( 'NONE',  #238 ) ;
#204 = AXIS2_PLACEMENT_3D ( 'NONE', #6, #50, #267 ) ;
#205 = ADVANCED_FACE ( 'NONE', ( #144, #114 ), #2, .T. ) ;
#206 = EDGE_LOOP ( 'NONE', ( #15, #228, #53, #123 ) ) ;
#207 = VERTEX_POINT ( 'NONE', #147 ) ;
#208 = AXIS2_PLACEMENT_3D ( 'NONE', #166, #110, #84 ) ;
#209 = VERTEX_POINT ( 'NONE', #71 ) ;
#210 = DIRECTION ( 'NONE',  ( -0.000000000000000000, -0.000000000000000000, -1.000000000000000000 ) ) ;
#211 = DIRECTION ( 'NONE',  ( -1.000000000000000000, 0.000000000000000000, 0.000000000000000000 ) ) ;
#212 = CIRCLE ( 'NONE', #73, 3.500000000000000000 ) ;
#213 = LINE ( 'NONE', #48, #247 ) ;
#214 = PRODUCT_DEFINITION ( 'NEZNÁMÝ', '', #13, #229 ) ;
#215 = VERTEX_POINT ( 'NONE', #121 ) ;
#216 = DIRECTION ( 'NONE',  ( 0.000000000000000000, 0.000000000000000000, 1.000000000000000000 ) ) ;
#217 = CLOSED_SHELL ( 'NONE', ( #180, #197, #243, #58, #205, #246, #125, #249, #152 ) ) ;
#218 = EDGE_CURVE ( 'NONE', #127, #102, #3, .T. ) ;
#219 = APPROVAL_DATE_TIME ( #261, #145 ) ;
#220 = DIRECTION ( 'NONE',  ( 1.000000000000000000, 0.000000000000000000, 0.000000000000000000 ) ) ;
#221 = PLANE ( 'NONE',  #204 ) ;
#222 = DIRECTION ( 'NONE',  ( -1.000000000000000000, 0.000000000000000000, 0.000000000000000000 ) ) ;
#223 = FACE_OUTER_BOUND ( 'NONE', #206, .T. ) ;
#224 = AXIS2_PLACEMENT_3D ( 'NONE', #237, #168, #68 ) ;
#225 = ORIENTED_EDGE ( 'NONE', *, *, #128, .F. ) ;
#226 = ORIENTED_EDGE ( 'NONE', *, *, #232, .T. ) ;
#227 = ORIENTED_EDGE ( 'NONE', *, *, #54, .F. ) ;
#228 = ORIENTED_EDGE ( 'NONE', *, *, #76, .T. ) ;
#229 = DESIGN_CONTEXT ( 'detailed design', #108, 'design' ) ;
#230 = DIRECTION ( 'NONE',  ( 0.000000000000000000, 0.000000000000000000, 1.000000000000000000 ) ) ;
#231 = APPROVAL_PERSON_ORGANIZATION ( #279, #153, #90 ) ;
#232 = EDGE_CURVE ( 'NONE', #127, #253, #26, .T. ) ;
#233 = DIRECTION ( 'NONE',  ( 1.000000000000000000, 0.000000000000000000, 0.000000000000000000 ) ) ;
#234 = CALENDAR_DATE ( 2022, 20, 6 ) ;
#235 = CARTESIAN_POINT ( 'NONE',  ( 0.000000000000000000, 0.000000000000000000, 5.199999999999982414 ) ) ;
#236 = COORDINATED_UNIVERSAL_TIME_OFFSET ( 1, 0, .AHEAD. ) ;
#237 = CARTESIAN_POINT ( 'NONE',  ( -3.700000000000000178, 4.531193156845206201E-16, 5.199999999999982414 ) ) ;
#238 = AXIS2_PLACEMENT_3D ( 'NONE', #120, #51, #95 ) ;
#239 = MECHANICAL_CONTEXT ( 'NONE', #32, 'mechanical' ) ;
#240 = DIRECTION ( 'NONE',  ( -0.000000000000000000, -0.000000000000000000, -1.000000000000000000 ) ) ;
#241 = CARTESIAN_POINT ( 'NONE',  ( 0.000000000000000000, 0.000000000000000000, 5.000000000000000000 ) ) ;
#242 = CC_DESIGN_APPROVAL ( #44, ( #303 ) ) ;
#243 = ADVANCED_FACE ( 'NONE', ( #149 ), #170, .T. ) ;
#244 = DIRECTION ( 'NONE',  ( 0.000000000000000000, 0.000000000000000000, 1.000000000000000000 ) ) ;
#245 = MANIFOLD_SOLID_BREP ( 'Zaoblit1', #217 ) ;
#246 = ADVANCED_FACE ( 'NONE', ( #289 ), #203, .F. ) ;
#247 = VECTOR ( 'NONE', #278, 1000.000000000000000 ) ;
#248 = ORIENTED_EDGE ( 'NONE', *, *, #10, .T. ) ;
#249 = ADVANCED_FACE ( 'NONE', ( #201 ), #221, .T. ) ;
#250 = CARTESIAN_POINT ( 'NONE',  ( 6.000000000000000888, 7.347880794884120722E-16, 5.000000000000000000 ) ) ;
#251 = CC_DESIGN_PERSON_AND_ORGANIZATION_ASSIGNMENT ( #61, #167, ( #303 ) ) ;
#252 = CIRCLE ( 'NONE', #117, 3.700000000000000178 ) ;
#253 = VERTEX_POINT ( 'NONE', #198 ) ;
#254 = LOCAL_TIME ( 11, 51, 32.00000000000000000, #131 ) ;
#255 = DATE_AND_TIME ( #186, #254 ) ;
#256 = FACE_OUTER_BOUND ( 'NONE', #291, .T. ) ;
#257 = PRODUCT ( 'cbb9', 'cbb9', '', ( #239 ) ) ;
#258 = COORDINATED_UNIVERSAL_TIME_OFFSET ( 1, 0, .AHEAD. ) ;
#259 = CARTESIAN_POINT ( 'NONE',  ( -6.000000000000000888, 0.000000000000000000, 5.000000000000000000 ) ) ;
#260 = TOROIDAL_SURFACE ( 'NONE', #138, 3.700000000000000178, 0.2000000000000000111 ) ;
#261 = DATE_AND_TIME ( #234, #296 ) ;
#262 = DIRECTION ( 'NONE',  ( 1.000000000000000000, 0.000000000000000000, -0.000000000000000000 ) ) ;
#263 = CIRCLE ( 'NONE', #56, 3.700000000000000178 ) ;
#264 = EDGE_CURVE ( 'NONE', #209, #207, #252, .T. ) ;
#265 = DIRECTION ( 'NONE',  ( 1.000000000000000000, 0.000000000000000000, 0.000000000000000000 ) ) ;
#266 = CIRCLE ( 'NONE', #105, 6.000000000000000888 ) ;
#267 = DIRECTION ( 'NONE',  ( 1.000000000000000000, 0.000000000000000000, -0.000000000000000000 ) ) ;
#268 = EDGE_CURVE ( 'NONE', #102, #127, #266, .T. ) ;
#269 = AXIS2_PLACEMENT_3D ( 'NONE', #202, #244, #262 ) ;
#270 = VECTOR ( 'NONE', #240, 1000.000000000000000 ) ;
#271 = ORIENTED_EDGE ( 'NONE', *, *, #218, .T. ) ;
#272 = ORIENTED_EDGE ( 'NONE', *, *, #128, .T. ) ;
#273 = ORIENTED_EDGE ( 'NONE', *, *, #118, .T. ) ;
#274 = DIRECTION ( 'NONE',  ( 0.000000000000000000, -1.000000000000000000, 0.000000000000000000 ) ) ;
#275 = PERSON_AND_ORGANIZATION_ROLE ( 'design_owner' ) ;
#276 = CARTESIAN_POINT ( 'NONE',  ( 6.000000000000000888, 7.347880794884120722E-16, 5.000000000000000000 ) ) ;
#277 = APPROVAL_ROLE ( '' ) ;
#278 = DIRECTION ( 'NONE',  ( -0.000000000000000000, -0.000000000000000000, -1.000000000000000000 ) ) ;
#279 = PERSON_AND_ORGANIZATION ( #99, #148 ) ;
#280 = CYLINDRICAL_SURFACE ( 'NONE', #174, 3.500000000000000000 ) ;
#281 = AXIS2_PLACEMENT_3D ( 'NONE', #82, #274, #104 ) ;
#282 = DIRECTION ( 'NONE',  ( 0.000000000000000000, 0.000000000000000000, 1.000000000000000000 ) ) ;
#283 = LINE ( 'NONE', #45, #270 ) ;
#284 = CALENDAR_DATE ( 2022, 20, 6 ) ;
#285 = CARTESIAN_POINT ( 'NONE',  ( -6.000000000000000888, 0.000000000000000000, 5.000000000000000000 ) ) ;
#286 = DIRECTION ( 'NONE',  ( -0.000000000000000000, -0.000000000000000000, -1.000000000000000000 ) ) ;
#287 = CC_DESIGN_PERSON_AND_ORGANIZATION_ASSIGNMENT ( #140, #275, ( #257 ) ) ;
#288 = DIRECTION ( 'NONE',  ( 0.000000000000000000, 0.000000000000000000, 1.000000000000000000 ) ) ;
#289 = FACE_OUTER_BOUND ( 'NONE', #57, .T. ) ;
#290 = ADVANCED_BREP_SHAPE_REPRESENTATION ( 'cbb9', ( #245, #4 ), #139 ) ;
#291 = EDGE_LOOP ( 'NONE', ( #292, #176, #38, #59 ) ) ;
#292 = ORIENTED_EDGE ( 'NONE', *, *, #171, .F. ) ;
#293 = ORIENTED_EDGE ( 'NONE', *, *, #76, .F. ) ;
#294 = EDGE_LOOP ( 'NONE', ( #126, #35, #55, #295 ) ) ;
#295 = ORIENTED_EDGE ( 'NONE', *, *, #232, .F. ) ;
#296 = LOCAL_TIME ( 11, 51, 32.00000000000000000, #236 ) ;
#297 = CARTESIAN_POINT ( 'NONE',  ( 0.000000000000000000, 0.000000000000000000, 5.199999999999982414 ) ) ;
#298 = PERSON_AND_ORGANIZATION ( #99, #148 ) ;
#299 = DIRECTION ( 'NONE',  ( 1.000000000000000000, 0.000000000000000000, 0.000000000000000000 ) ) ;
#300 = CARTESIAN_POINT ( 'NONE',  ( 0.000000000000000000, 0.000000000000000000, 0.000000000000000000 ) ) ;
#301 = CARTESIAN_POINT ( 'NONE',  ( 3.500000000000000000, 4.286263797015736595E-16, 5.199999999999982414 ) ) ;
#302 = COORDINATED_UNIVERSAL_TIME_OFFSET ( 1, 0, .AHEAD. ) ;
#303 = SECURITY_CLASSIFICATION ( '', '', #164 ) ;
#304 = CARTESIAN_POINT ( 'NONE',  ( -3.500000000000000000, 0.000000000000000000, 5.199999999999982414 ) ) ;
#305 = LINE ( 'NONE', #250, #143 ) ;
#306 = APPROVAL_STATUS ( 'not_yet_approved' ) ;
#307 = CYLINDRICAL_SURFACE ( 'NONE', #130, 3.500000000000000000 ) ;
ENDSEC;
END-ISO-10303-21;
