ISO-10303-21;
HEADER;
FILE_DESCRIPTION (( 'STEP AP203' ),
    '1' );
FILE_NAME ('5741.STEP',
    '2022-06-20T09:26:15',
    ( '' ),
    ( '' ),
    'SwSTEP 2.0',
    'SolidWorks 2019',
    '' );
FILE_SCHEMA (( 'CONFIG_CONTROL_DESIGN' ));
ENDSEC;

DATA;
#1 = CC_DESIGN_APPROVAL ( #2, ( #9 ) ) ;
#2 = APPROVAL ( #36, 'NEURÈENÝ' ) ;
#3 = CALENDAR_DATE ( 2022, 20, 6 ) ;
#4 = PERSON_AND_ORGANIZATION ( #91, #93 ) ;
#5 = EDGE_CURVE ( 'NONE', #85, #218, #224, .T. ) ;
#6 = ORIENTED_EDGE ( 'NONE', *, *, #287, .T. ) ;
#7 = CARTESIAN_POINT ( 'NONE',  ( -7.000000000000000888, 0.000000000000000000, 637.0000000000000000 ) ) ;
#8 = DATE_TIME_ROLE ( 'classification_date' ) ;
#9 = SECURITY_CLASSIFICATION ( '', '', #288 ) ;
#10 = CYLINDRICAL_SURFACE ( 'NONE', #129, 7.000000000000000888 ) ;
#11 = ORIENTED_EDGE ( 'NONE', *, *, #284, .T. ) ;
#12 = COORDINATED_UNIVERSAL_TIME_OFFSET ( 1, 0, .AHEAD. ) ;
#13 = DIRECTION ( 'NONE',  ( 0.000000000000000000, -1.000000000000000000, 0.000000000000000000 ) ) ;
#14 = VERTEX_POINT ( 'NONE', #226 ) ;
#15 = CIRCLE ( 'NONE', #95, 7.200000000000001066 ) ;
#16 = APPROVAL ( #171, 'NEURÈENÝ' ) ;
#17 = AXIS2_PLACEMENT_3D ( 'NONE', #259, #96, #307 ) ;
#18 = DIRECTION ( 'NONE',  ( 1.000000000000000000, 0.000000000000000000, 0.000000000000000000 ) ) ;
#19 = DIRECTION ( 'NONE',  ( 0.000000000000000000, 0.000000000000000000, 1.000000000000000000 ) ) ;
#20 = AXIS2_PLACEMENT_3D ( 'NONE', #211, #189, #290 ) ;
#21 = DIRECTION ( 'NONE',  ( 0.000000000000000000, 0.000000000000000000, 1.000000000000000000 ) ) ;
#22 = APPROVAL_PERSON_ORGANIZATION ( #50, #16, #267 ) ;
#23 = DIRECTION ( 'NONE',  ( 0.000000000000000000, 0.000000000000000000, 1.000000000000000000 ) ) ;
#24 = CC_DESIGN_PERSON_AND_ORGANIZATION_ASSIGNMENT ( #199, #40, ( #236 ) ) ;
#25 = AXIS2_PLACEMENT_3D ( 'NONE', #232, #219, #77 ) ;
#26 =( LENGTH_UNIT ( ) NAMED_UNIT ( * ) SI_UNIT ( .MILLI., .METRE. ) );
#27 = DIRECTION ( 'NONE',  ( 1.000000000000000000, 0.000000000000000000, 0.000000000000000000 ) ) ;
#28 = DIRECTION ( 'NONE',  ( 1.000000000000000000, 0.000000000000000000, 0.000000000000000000 ) ) ;
#29 = ORIENTED_EDGE ( 'NONE', *, *, #294, .T. ) ;
#30 = CARTESIAN_POINT ( 'NONE',  ( 11.00000000000000000, 1.347111479062088405E-15, 0.000000000000000000 ) ) ;
#31 = AXIS2_PLACEMENT_3D ( 'NONE', #61, #153, #198 ) ;
#32 = MANIFOLD_SOLID_BREP ( 'Zaoblit1', #217 ) ;
#33 = LINE ( 'NONE', #7, #94 ) ;
#34 = EDGE_CURVE ( 'NONE', #306, #203, #192, .T. ) ;
#35 = DATE_AND_TIME ( #247, #135 ) ;
#36 = APPROVAL_STATUS ( 'not_yet_approved' ) ;
#37 = LOCAL_TIME ( 11, 26, 15.00000000000000000, #12 ) ;
#38 = AXIS2_PLACEMENT_3D ( 'NONE', #122, #193, #27 ) ;
#39 = DIRECTION ( 'NONE',  ( -1.000000000000000000, 0.000000000000000000, 0.000000000000000000 ) ) ;
#40 = PERSON_AND_ORGANIZATION_ROLE ( 'design_supplier' ) ;
#41 = DIRECTION ( 'NONE',  ( 0.000000000000000000, 0.000000000000000000, 1.000000000000000000 ) ) ;
#42 = EDGE_LOOP ( 'NONE', ( #82, #6 ) ) ;
#43 = EDGE_CURVE ( 'NONE', #185, #306, #234, .T. ) ;
#44 = CARTESIAN_POINT ( 'NONE',  ( 0.000000000000000000, 0.000000000000000000, 637.0000000000000000 ) ) ;
#45 = EDGE_LOOP ( 'NONE', ( #150, #229, #173, #187 ) ) ;
#46 = DIRECTION ( 'NONE',  ( 1.000000000000000000, 0.000000000000000000, 0.000000000000000000 ) ) ;
#47 = DATE_AND_TIME ( #83, #37 ) ;
#48 = CC_DESIGN_DATE_AND_TIME_ASSIGNMENT ( #80, #269, ( #206 ) ) ;
#49 = PLANE ( 'NONE',  #17 ) ;
#50 = PERSON_AND_ORGANIZATION ( #91, #93 ) ;
#51 = APPROVAL_ROLE ( '' ) ;
#52 = CARTESIAN_POINT ( 'NONE',  ( 0.000000000000000000, 0.000000000000000000, 7.000000000000000000 ) ) ;
#53 = DIRECTION ( 'NONE',  ( -0.000000000000000000, -0.000000000000000000, -1.000000000000000000 ) ) ;
#54 = EDGE_LOOP ( 'NONE', ( #283, #138, #29, #87 ) ) ;
#55 = AXIS2_PLACEMENT_3D ( 'NONE', #242, #23, #28 ) ;
#56 = CC_DESIGN_DATE_AND_TIME_ASSIGNMENT ( #35, #8, ( #9 ) ) ;
#57 = CALENDAR_DATE ( 2022, 20, 6 ) ;
#58 = CARTESIAN_POINT ( 'NONE',  ( -7.200000000000001066, 8.817456953860944275E-16, 6.999999999999992006 ) ) ;
#59 = ORIENTED_EDGE ( 'NONE', *, *, #190, .F. ) ;
#60 = CYLINDRICAL_SURFACE ( 'NONE', #194, 11.00000000000000000 ) ;
#61 = CARTESIAN_POINT ( 'NONE',  ( 0.000000000000000000, 0.000000000000000000, 7.199999999999984190 ) ) ;
#62 = COORDINATED_UNIVERSAL_TIME_OFFSET ( 1, 0, .AHEAD. ) ;
#63 = EDGE_CURVE ( 'NONE', #128, #145, #168, .T. ) ;
#64 = DIRECTION ( 'NONE',  ( 1.000000000000000000, 0.000000000000000000, 0.000000000000000000 ) ) ;
#65 = AXIS2_PLACEMENT_3D ( 'NONE', #154, #41, #132 ) ;
#66 = CIRCLE ( 'NONE', #111, 7.000000000000000888 ) ;
#67 = LOCAL_TIME ( 11, 26, 15.00000000000000000, #62 ) ;
#68 = DIRECTION ( 'NONE',  ( -1.000000000000000000, 0.000000000000000000, 0.000000000000000000 ) ) ;
#69 = AXIS2_PLACEMENT_3D ( 'NONE', #181, #280, #64 ) ;
#70 = ORIENTED_EDGE ( 'NONE', *, *, #244, .F. ) ;
#71 = EDGE_CURVE ( 'NONE', #155, #203, #33, .T. ) ;
#72 = FACE_OUTER_BOUND ( 'NONE', #256, .T. ) ;
#73 = PERSON_AND_ORGANIZATION_ROLE ( 'classification_officer' ) ;
#74 = CARTESIAN_POINT ( 'NONE',  ( 11.00000000000000000, 1.347111479062088405E-15, 7.000000000000000000 ) ) ;
#75 = COORDINATED_UNIVERSAL_TIME_OFFSET ( 1, 0, .AHEAD. ) ;
#76 = ADVANCED_FACE ( 'NONE', ( #101 ), #10, .T. ) ;
#77 = DIRECTION ( 'NONE',  ( 1.000000000000000000, 0.000000000000000000, 0.000000000000000000 ) ) ;
#78 = VECTOR ( 'NONE', #162, 1000.000000000000000 ) ;
#79 = ORIENTED_EDGE ( 'NONE', *, *, #282, .F. ) ;
#80 = DATE_AND_TIME ( #144, #67 ) ;
#81 = EDGE_CURVE ( 'NONE', #291, #14, #202, .T. ) ;
#82 = ORIENTED_EDGE ( 'NONE', *, *, #5, .T. ) ;
#83 = CALENDAR_DATE ( 2022, 20, 6 ) ;
#84 = FACE_OUTER_BOUND ( 'NONE', #125, .T. ) ;
#85 = VERTEX_POINT ( 'NONE', #180 ) ;
#86 = DIRECTION ( 'NONE',  ( -0.000000000000000000, -0.000000000000000000, -1.000000000000000000 ) ) ;
#87 = ORIENTED_EDGE ( 'NONE', *, *, #139, .T. ) ;
#88 = TOROIDAL_SURFACE ( 'NONE', #97, 7.200000000000001066, 0.2000000000000000111 ) ;
#89 = DIRECTION ( 'NONE',  ( 1.000000000000000000, 0.000000000000000000, -0.000000000000000000 ) ) ;
#90 = AXIS2_PLACEMENT_3D ( 'NONE', #233, #21, #46 ) ;
#91 = PERSON ( 'NEURÈENÝ', 'NEURÈENÝ', 'NEURÈENÝ', ('NEURÈENÝ'), ('NEURÈENÝ'), ('NEURÈENÝ') ) ;
#92 = ADVANCED_FACE ( 'NONE', ( #207 ), #157, .T. ) ;
#93 = ORGANIZATION ( 'NEURÈENÝ', 'NEURÈENÝ', '' ) ;
#94 = VECTOR ( 'NONE', #274, 1000.000000000000000 ) ;
#95 = AXIS2_PLACEMENT_3D ( 'NONE', #52, #146, #102 ) ;
#96 = DIRECTION ( 'NONE',  ( 0.000000000000000000, 0.000000000000000000, 1.000000000000000000 ) ) ;
#97 = AXIS2_PLACEMENT_3D ( 'NONE', #286, #238, #151 ) ;
#98 =( NAMED_UNIT ( * ) PLANE_ANGLE_UNIT ( ) SI_UNIT ( $, .RADIAN. ) );
#99 = DIRECTION ( 'NONE',  ( 1.224646799147353207E-16, 1.000000000000000000, -0.000000000000000000 ) ) ;
#100 = DATE_AND_TIME ( #3, #285 ) ;
#101 = FACE_OUTER_BOUND ( 'NONE', #220, .T. ) ;
#102 = DIRECTION ( 'NONE',  ( 1.000000000000000000, 0.000000000000000000, 0.000000000000000000 ) ) ;
#103 = CIRCLE ( 'NONE', #295, 0.1999999999999996503 ) ;
#104 = CC_DESIGN_PERSON_AND_ORGANIZATION_ASSIGNMENT ( #215, #214, ( #206 ) ) ;
#105 =( GEOMETRIC_REPRESENTATION_CONTEXT ( 3 ) GLOBAL_UNCERTAINTY_ASSIGNED_CONTEXT ( ( #278 ) ) GLOBAL_UNIT_ASSIGNED_CONTEXT ( ( #26, #98, #107 ) ) REPRESENTATION_CONTEXT ( 'NONE', 'WORKASPACE' ) );
#106 = AXIS2_PLACEMENT_3D ( 'NONE', #303, #228, #18 ) ;
#107 =( NAMED_UNIT ( * ) SI_UNIT ( $, .STERADIAN. ) SOLID_ANGLE_UNIT ( ) );
#108 = CARTESIAN_POINT ( 'NONE',  ( 0.000000000000000000, 0.000000000000000000, 637.0000000000000000 ) ) ;
#109 = CARTESIAN_POINT ( 'NONE',  ( -7.000000000000000888, 0.000000000000000000, 7.199999999999984190 ) ) ;
#110 = ORIENTED_EDGE ( 'NONE', *, *, #81, .T. ) ;
#111 = AXIS2_PLACEMENT_3D ( 'NONE', #167, #268, #240 ) ;
#112 = APPROVAL_PERSON_ORGANIZATION ( #4, #302, #51 ) ;
#113 = ORIENTED_EDGE ( 'NONE', *, *, #282, .T. ) ;
#114 = CC_DESIGN_PERSON_AND_ORGANIZATION_ASSIGNMENT ( #204, #73, ( #9 ) ) ;
#115 = CIRCLE ( 'NONE', #20, 11.00000000000000000 ) ;
#116 = FACE_OUTER_BOUND ( 'NONE', #54, .T. ) ;
#117 = FACE_OUTER_BOUND ( 'NONE', #266, .T. ) ;
#118 = ADVANCED_FACE ( 'NONE', ( #254, #72 ), #49, .T. ) ;
#119 = ORIENTED_EDGE ( 'NONE', *, *, #71, .T. ) ;
#120 = ORIENTED_EDGE ( 'NONE', *, *, #139, .F. ) ;
#121 = ORIENTED_EDGE ( 'NONE', *, *, #183, .T. ) ;
#122 = CARTESIAN_POINT ( 'NONE',  ( 0.000000000000000000, 0.000000000000000000, 637.0000000000000000 ) ) ;
#123 = PERSON_AND_ORGANIZATION_ROLE ( 'design_owner' ) ;
#124 = APPLICATION_PROTOCOL_DEFINITION ( 'international standard', 'config_control_design', 1994, #264 ) ;
#125 = EDGE_LOOP ( 'NONE', ( #120, #260 ) ) ;
#126 = EDGE_CURVE ( 'NONE', #185, #155, #305, .T. ) ;
#127 = APPLICATION_PROTOCOL_DEFINITION ( 'international standard', 'config_control_design', 1994, #164 ) ;
#128 = VERTEX_POINT ( 'NONE', #30 ) ;
#129 = AXIS2_PLACEMENT_3D ( 'NONE', #108, #299, #184 ) ;
#130 = APPROVAL_ROLE ( '' ) ;
#131 = PERSON_AND_ORGANIZATION ( #91, #93 ) ;
#132 = DIRECTION ( 'NONE',  ( 1.000000000000000000, 0.000000000000000000, -0.000000000000000000 ) ) ;
#133 = PRODUCT ( '5741', '5741', '', ( #292 ) ) ;
#134 = CC_DESIGN_PERSON_AND_ORGANIZATION_ASSIGNMENT ( #176, #276, ( #236 ) ) ;
#135 = LOCAL_TIME ( 11, 26, 15.00000000000000000, #166 ) ;
#136 = AXIS2_PLACEMENT_3D ( 'NONE', #222, #216, #293 ) ;
#137 = DIRECTION ( 'NONE',  ( -1.000000000000000000, 0.000000000000000000, 0.000000000000000000 ) ) ;
#138 = ORIENTED_EDGE ( 'NONE', *, *, #175, .F. ) ;
#139 = EDGE_CURVE ( 'NONE', #145, #128, #251, .T. ) ;
#140 = FACE_OUTER_BOUND ( 'NONE', #149, .T. ) ;
#141 = ORIENTED_EDGE ( 'NONE', *, *, #287, .F. ) ;
#142 = ADVANCED_FACE ( 'NONE', ( #140 ), #88, .F. ) ;
#143 = DATE_AND_TIME ( #57, #174 ) ;
#144 = CALENDAR_DATE ( 2022, 20, 6 ) ;
#145 = VERTEX_POINT ( 'NONE', #289 ) ;
#146 = DIRECTION ( 'NONE',  ( -0.000000000000000000, -0.000000000000000000, -1.000000000000000000 ) ) ;
#147 = CARTESIAN_POINT ( 'NONE',  ( 7.200000000000001066, 0.000000000000000000, 7.199999999999984190 ) ) ;
#148 = CC_DESIGN_SECURITY_CLASSIFICATION ( #9, ( #236 ) ) ;
#149 = EDGE_LOOP ( 'NONE', ( #70, #113, #246, #59 ) ) ;
#150 = ORIENTED_EDGE ( 'NONE', *, *, #126, .F. ) ;
#151 = DIRECTION ( 'NONE',  ( 1.000000000000000000, 0.000000000000000000, 0.000000000000000000 ) ) ;
#152 = CARTESIAN_POINT ( 'NONE',  ( 0.000000000000000000, 0.000000000000000000, 0.000000000000000000 ) ) ;
#153 = DIRECTION ( 'NONE',  ( 0.000000000000000000, 0.000000000000000000, 1.000000000000000000 ) ) ;
#154 = CARTESIAN_POINT ( 'NONE',  ( 0.000000000000000000, 0.000000000000000000, 0.000000000000000000 ) ) ;
#155 = VERTEX_POINT ( 'NONE', #248 ) ;
#156 = DESIGN_CONTEXT ( 'detailed design', #164, 'design' ) ;
#157 = CYLINDRICAL_SURFACE ( 'NONE', #243, 7.000000000000000888 ) ;
#158 = VECTOR ( 'NONE', #53, 1000.000000000000000 ) ;
#159 = ADVANCED_FACE ( 'NONE', ( #117 ), #182, .T. ) ;
#160 = SHAPE_DEFINITION_REPRESENTATION ( #252, #165 ) ;
#161 = DIRECTION ( 'NONE',  ( -0.000000000000000000, -0.000000000000000000, -1.000000000000000000 ) ) ;
#162 = DIRECTION ( 'NONE',  ( -0.000000000000000000, -0.000000000000000000, -1.000000000000000000 ) ) ;
#163 = ADVANCED_FACE ( 'NONE', ( #116 ), #304, .T. ) ;
#164 = APPLICATION_CONTEXT ( 'configuration controlled 3d designs of mechanical parts and assemblies' ) ;
#165 = ADVANCED_BREP_SHAPE_REPRESENTATION ( '5741', ( #32, #200 ), #105 ) ;
#166 = COORDINATED_UNIVERSAL_TIME_OFFSET ( 1, 0, .AHEAD. ) ;
#167 = CARTESIAN_POINT ( 'NONE',  ( 0.000000000000000000, 0.000000000000000000, 637.0000000000000000 ) ) ;
#168 = CIRCLE ( 'NONE', #25, 11.00000000000000000 ) ;
#169 = DIRECTION ( 'NONE',  ( -0.000000000000000000, -0.000000000000000000, -1.000000000000000000 ) ) ;
#170 = ADVANCED_FACE ( 'NONE', ( #258 ), #230, .F. ) ;
#171 = APPROVAL_STATUS ( 'not_yet_approved' ) ;
#172 = CARTESIAN_POINT ( 'NONE',  ( 11.00000000000000000, 1.347111479062088405E-15, 7.000000000000000000 ) ) ;
#173 = ORIENTED_EDGE ( 'NONE', *, *, #34, .T. ) ;
#174 = LOCAL_TIME ( 11, 26, 15.00000000000000000, #75 ) ;
#175 = EDGE_CURVE ( 'NONE', #14, #291, #115, .T. ) ;
#176 = PERSON_AND_ORGANIZATION ( #91, #93 ) ;
#177 = APPROVAL_STATUS ( 'not_yet_approved' ) ;
#178 = PLANE ( 'NONE',  #65 ) ;
#179 = ORIENTED_EDGE ( 'NONE', *, *, #63, .T. ) ;
#180 = CARTESIAN_POINT ( 'NONE',  ( 7.200000000000001066, 0.000000000000000000, 6.999999999999992006 ) ) ;
#181 = CARTESIAN_POINT ( 'NONE',  ( 0.000000000000000000, 0.000000000000000000, 7.199999999999984190 ) ) ;
#182 = PLANE ( 'NONE',  #272 ) ;
#183 = EDGE_CURVE ( 'NONE', #291, #128, #235, .T. ) ;
#184 = DIRECTION ( 'NONE',  ( -1.000000000000000000, 0.000000000000000000, 0.000000000000000000 ) ) ;
#185 = VERTEX_POINT ( 'NONE', #263 ) ;
#186 = CARTESIAN_POINT ( 'NONE',  ( 0.000000000000000000, 0.000000000000000000, 7.000000000000000000 ) ) ;
#187 = ORIENTED_EDGE ( 'NONE', *, *, #71, .F. ) ;
#188 = EDGE_LOOP ( 'NONE', ( #249, #121, #179, #201 ) ) ;
#189 = DIRECTION ( 'NONE',  ( 0.000000000000000000, 0.000000000000000000, 1.000000000000000000 ) ) ;
#190 = EDGE_CURVE ( 'NONE', #306, #85, #208, .T. ) ;
#191 = CC_DESIGN_APPROVAL ( #16, ( #206 ) ) ;
#192 = CIRCLE ( 'NONE', #31, 7.000000000000000888 ) ;
#193 = DIRECTION ( 'NONE',  ( 0.000000000000000000, 0.000000000000000000, 1.000000000000000000 ) ) ;
#194 = AXIS2_PLACEMENT_3D ( 'NONE', #250, #86, #39 ) ;
#195 = AXIS2_PLACEMENT_3D ( 'NONE', #147, #13, #297 ) ;
#196 = APPROVAL_DATE_TIME ( #143, #16 ) ;
#197 = DIRECTION ( 'NONE',  ( -1.000000000000000000, 1.224646799147358384E-16, 0.000000000000000000 ) ) ;
#198 = DIRECTION ( 'NONE',  ( 1.000000000000000000, 0.000000000000000000, 0.000000000000000000 ) ) ;
#199 = PERSON_AND_ORGANIZATION ( #91, #93 ) ;
#200 = AXIS2_PLACEMENT_3D ( 'NONE', #152, #296, #265 ) ;
#201 = ORIENTED_EDGE ( 'NONE', *, *, #294, .F. ) ;
#202 = CIRCLE ( 'NONE', #106, 11.00000000000000000 ) ;
#203 = VERTEX_POINT ( 'NONE', #109 ) ;
#204 = PERSON_AND_ORGANIZATION ( #91, #93 ) ;
#205 = ORIENTED_EDGE ( 'NONE', *, *, #190, .T. ) ;
#206 = PRODUCT_DEFINITION ( 'NEZNÁMÝ', '', #236, #156 ) ;
#207 = FACE_OUTER_BOUND ( 'NONE', #45, .T. ) ;
#208 = CIRCLE ( 'NONE', #195, 0.1999999999999996503 ) ;
#209 = APPROVAL_PERSON_ORGANIZATION ( #131, #2, #130 ) ;
#210 = CARTESIAN_POINT ( 'NONE',  ( 7.000000000000000888, 8.572527594031474176E-16, 637.0000000000000000 ) ) ;
#211 = CARTESIAN_POINT ( 'NONE',  ( 0.000000000000000000, 0.000000000000000000, 7.000000000000000000 ) ) ;
#212 = EDGE_LOOP ( 'NONE', ( #79, #281, #205, #141 ) ) ;
#213 = ORIENTED_EDGE ( 'NONE', *, *, #284, .F. ) ;
#214 = PERSON_AND_ORGANIZATION_ROLE ( 'creator' ) ;
#215 = PERSON_AND_ORGANIZATION ( #91, #93 ) ;
#216 = DIRECTION ( 'NONE',  ( -0.000000000000000000, -0.000000000000000000, -1.000000000000000000 ) ) ;
#217 = CLOSED_SHELL ( 'NONE', ( #142, #92, #225, #163, #118, #221, #76, #159, #170 ) ) ;
#218 = VERTEX_POINT ( 'NONE', #58 ) ;
#219 = DIRECTION ( 'NONE',  ( 0.000000000000000000, 0.000000000000000000, 1.000000000000000000 ) ) ;
#220 = EDGE_LOOP ( 'NONE', ( #277, #213, #119, #273 ) ) ;
#221 = ADVANCED_FACE ( 'NONE', ( #84 ), #178, .F. ) ;
#222 = CARTESIAN_POINT ( 'NONE',  ( 0.000000000000000000, 0.000000000000000000, 7.000000000000000000 ) ) ;
#223 = CARTESIAN_POINT ( 'NONE',  ( 7.000000000000000888, 8.572527594031474176E-16, 7.199999999999984190 ) ) ;
#224 = CIRCLE ( 'NONE', #136, 7.200000000000001066 ) ;
#225 = ADVANCED_FACE ( 'NONE', ( #227 ), #60, .T. ) ;
#226 = CARTESIAN_POINT ( 'NONE',  ( -11.00000000000000000, 0.000000000000000000, 7.000000000000000000 ) ) ;
#227 = FACE_OUTER_BOUND ( 'NONE', #188, .T. ) ;
#228 = DIRECTION ( 'NONE',  ( 0.000000000000000000, 0.000000000000000000, 1.000000000000000000 ) ) ;
#229 = ORIENTED_EDGE ( 'NONE', *, *, #43, .T. ) ;
#230 = TOROIDAL_SURFACE ( 'NONE', #90, 7.200000000000001066, 0.2000000000000000111 ) ;
#231 = ORIENTED_EDGE ( 'NONE', *, *, #175, .T. ) ;
#232 = CARTESIAN_POINT ( 'NONE',  ( 0.000000000000000000, 0.000000000000000000, 0.000000000000000000 ) ) ;
#233 = CARTESIAN_POINT ( 'NONE',  ( 0.000000000000000000, 0.000000000000000000, 7.199999999999984190 ) ) ;
#234 = LINE ( 'NONE', #210, #78 ) ;
#235 = LINE ( 'NONE', #74, #245 ) ;
#236 = PRODUCT_DEFINITION_FORMATION_WITH_SPECIFIED_SOURCE ( 'LIBOVOLNÝ', '', #133, .NOT_KNOWN. ) ;
#237 = CARTESIAN_POINT ( 'NONE',  ( -7.200000000000001066, 8.817456953860944275E-16, 7.199999999999984190 ) ) ;
#238 = DIRECTION ( 'NONE',  ( 0.000000000000000000, 0.000000000000000000, 1.000000000000000000 ) ) ;
#239 = COORDINATED_UNIVERSAL_TIME_OFFSET ( 1, 0, .AHEAD. ) ;
#240 = DIRECTION ( 'NONE',  ( 1.000000000000000000, 0.000000000000000000, 0.000000000000000000 ) ) ;
#241 = LINE ( 'NONE', #270, #158 ) ;
#242 = CARTESIAN_POINT ( 'NONE',  ( 0.000000000000000000, 0.000000000000000000, 0.000000000000000000 ) ) ;
#243 = AXIS2_PLACEMENT_3D ( 'NONE', #301, #279, #137 ) ;
#244 = EDGE_CURVE ( 'NONE', #203, #306, #298, .T. ) ;
#245 = VECTOR ( 'NONE', #169, 1000.000000000000000 ) ;
#246 = ORIENTED_EDGE ( 'NONE', *, *, #5, .F. ) ;
#247 = CALENDAR_DATE ( 2022, 20, 6 ) ;
#248 = CARTESIAN_POINT ( 'NONE',  ( -7.000000000000000888, 0.000000000000000000, 637.0000000000000000 ) ) ;
#249 = ORIENTED_EDGE ( 'NONE', *, *, #81, .F. ) ;
#250 = CARTESIAN_POINT ( 'NONE',  ( 0.000000000000000000, 0.000000000000000000, 7.000000000000000000 ) ) ;
#251 = CIRCLE ( 'NONE', #55, 11.00000000000000000 ) ;
#252 = PRODUCT_DEFINITION_SHAPE ( 'NONE', 'NONE',  #206 ) ;
#253 = APPROVAL_DATE_TIME ( #100, #302 ) ;
#254 = FACE_BOUND ( 'NONE', #42, .T. ) ;
#255 = APPROVAL_DATE_TIME ( #47, #2 ) ;
#256 = EDGE_LOOP ( 'NONE', ( #231, #110 ) ) ;
#257 = PRODUCT_RELATED_PRODUCT_CATEGORY ( 'detail', '', ( #133 ) ) ;
#258 = FACE_OUTER_BOUND ( 'NONE', #212, .T. ) ;
#259 = CARTESIAN_POINT ( 'NONE',  ( 0.000000000000000000, 0.000000000000000000, 7.000000000000000000 ) ) ;
#260 = ORIENTED_EDGE ( 'NONE', *, *, #63, .F. ) ;
#261 = CC_DESIGN_PERSON_AND_ORGANIZATION_ASSIGNMENT ( #300, #123, ( #133 ) ) ;
#262 = AXIS2_PLACEMENT_3D ( 'NONE', #186, #161, #68 ) ;
#263 = CARTESIAN_POINT ( 'NONE',  ( 7.000000000000000888, 8.572527594031474176E-16, 637.0000000000000000 ) ) ;
#264 = APPLICATION_CONTEXT ( 'configuration controlled 3d designs of mechanical parts and assemblies' ) ;
#265 = DIRECTION ( 'NONE',  ( 1.000000000000000000, 0.000000000000000000, 0.000000000000000000 ) ) ;
#266 = EDGE_LOOP ( 'NONE', ( #11, #275 ) ) ;
#267 = APPROVAL_ROLE ( '' ) ;
#268 = DIRECTION ( 'NONE',  ( 0.000000000000000000, 0.000000000000000000, 1.000000000000000000 ) ) ;
#269 = DATE_TIME_ROLE ( 'creation_date' ) ;
#270 = CARTESIAN_POINT ( 'NONE',  ( -11.00000000000000000, 0.000000000000000000, 7.000000000000000000 ) ) ;
#271 = CC_DESIGN_APPROVAL ( #302, ( #236 ) ) ;
#272 = AXIS2_PLACEMENT_3D ( 'NONE', #44, #19, #89 ) ;
#273 = ORIENTED_EDGE ( 'NONE', *, *, #244, .T. ) ;
#274 = DIRECTION ( 'NONE',  ( -0.000000000000000000, -0.000000000000000000, -1.000000000000000000 ) ) ;
#275 = ORIENTED_EDGE ( 'NONE', *, *, #126, .T. ) ;
#276 = PERSON_AND_ORGANIZATION_ROLE ( 'creator' ) ;
#277 = ORIENTED_EDGE ( 'NONE', *, *, #43, .F. ) ;
#278 = UNCERTAINTY_MEASURE_WITH_UNIT (LENGTH_MEASURE( 1.000000000000000082E-05 ), #26, 'distance_accuracy_value', 'NONE');
#279 = DIRECTION ( 'NONE',  ( -0.000000000000000000, -0.000000000000000000, -1.000000000000000000 ) ) ;
#280 = DIRECTION ( 'NONE',  ( 0.000000000000000000, 0.000000000000000000, 1.000000000000000000 ) ) ;
#281 = ORIENTED_EDGE ( 'NONE', *, *, #34, .F. ) ;
#282 = EDGE_CURVE ( 'NONE', #203, #218, #103, .T. ) ;
#283 = ORIENTED_EDGE ( 'NONE', *, *, #183, .F. ) ;
#284 = EDGE_CURVE ( 'NONE', #155, #185, #66, .T. ) ;
#285 = LOCAL_TIME ( 11, 26, 15.00000000000000000, #239 ) ;
#286 = CARTESIAN_POINT ( 'NONE',  ( 0.000000000000000000, 0.000000000000000000, 7.199999999999984190 ) ) ;
#287 = EDGE_CURVE ( 'NONE', #218, #85, #15, .T. ) ;
#288 = SECURITY_CLASSIFICATION_LEVEL ( 'unclassified' ) ;
#289 = CARTESIAN_POINT ( 'NONE',  ( -11.00000000000000000, 0.000000000000000000, 0.000000000000000000 ) ) ;
#290 = DIRECTION ( 'NONE',  ( 1.000000000000000000, 0.000000000000000000, 0.000000000000000000 ) ) ;
#291 = VERTEX_POINT ( 'NONE', #172 ) ;
#292 = MECHANICAL_CONTEXT ( 'NONE', #264, 'mechanical' ) ;
#293 = DIRECTION ( 'NONE',  ( 1.000000000000000000, 0.000000000000000000, 0.000000000000000000 ) ) ;
#294 = EDGE_CURVE ( 'NONE', #14, #145, #241, .T. ) ;
#295 = AXIS2_PLACEMENT_3D ( 'NONE', #237, #99, #197 ) ;
#296 = DIRECTION ( 'NONE',  ( 0.000000000000000000, 0.000000000000000000, 1.000000000000000000 ) ) ;
#297 = DIRECTION ( 'NONE',  ( 0.000000000000000000, 0.000000000000000000, -1.000000000000000000 ) ) ;
#298 = CIRCLE ( 'NONE', #69, 7.000000000000000888 ) ;
#299 = DIRECTION ( 'NONE',  ( -0.000000000000000000, -0.000000000000000000, -1.000000000000000000 ) ) ;
#300 = PERSON_AND_ORGANIZATION ( #91, #93 ) ;
#301 = CARTESIAN_POINT ( 'NONE',  ( 0.000000000000000000, 0.000000000000000000, 637.0000000000000000 ) ) ;
#302 = APPROVAL ( #177, 'NEURÈENÝ' ) ;
#303 = CARTESIAN_POINT ( 'NONE',  ( 0.000000000000000000, 0.000000000000000000, 7.000000000000000000 ) ) ;
#304 = CYLINDRICAL_SURFACE ( 'NONE', #262, 11.00000000000000000 ) ;
#305 = CIRCLE ( 'NONE', #38, 7.000000000000000888 ) ;
#306 = VERTEX_POINT ( 'NONE', #223 ) ;
#307 = DIRECTION ( 'NONE',  ( 1.000000000000000000, 0.000000000000000000, -0.000000000000000000 ) ) ;
ENDSEC;
END-ISO-10303-21;
