ISO-10303-21;
HEADER;
FILE_DESCRIPTION (( 'STEP AP203' ),
    '1' );
FILE_NAME ('1cf0.STEP',
    '2022-06-20T09:56:57',
    ( '' ),
    ( '' ),
    'SwSTEP 2.0',
    'SolidWorks 2019',
    '' );
FILE_SCHEMA (( 'CONFIG_CONTROL_DESIGN' ));
ENDSEC;

DATA;
#1 = DIRECTION ( 'NONE',  ( 1.000000000000000000, 0.000000000000000000, 0.000000000000000000 ) ) ;
#2 = DIRECTION ( 'NONE',  ( 1.000000000000000000, 0.000000000000000000, 0.000000000000000000 ) ) ;
#3 = APPROVAL ( #184, 'NEURÈENÝ' ) ;
#4 = ADVANCED_BREP_SHAPE_REPRESENTATION ( '1cf0', ( #84, #38 ), #140 ) ;
#5 = PERSON_AND_ORGANIZATION ( #75, #81 ) ;
#6 = VECTOR ( 'NONE', #286, 1000.000000000000000 ) ;
#7 = ADVANCED_FACE ( 'NONE', ( #298 ), #206, .T. ) ;
#8 = DATE_AND_TIME ( #248, #29 ) ;
#9 = CALENDAR_DATE ( 2022, 20, 6 ) ;
#10 = DIRECTION ( 'NONE',  ( -0.000000000000000000, -0.000000000000000000, -1.000000000000000000 ) ) ;
#11 = VERTEX_POINT ( 'NONE', #15 ) ;
#12 = APPROVAL_ROLE ( '' ) ;
#13 = ORIENTED_EDGE ( 'NONE', *, *, #306, .T. ) ;
#14 = APPROVAL_DATE_TIME ( #27, #145 ) ;
#15 = CARTESIAN_POINT ( 'NONE',  ( -6.000000000000000888, 0.000000000000000000, 0.000000000000000000 ) ) ;
#16 = CIRCLE ( 'NONE', #268, 6.000000000000000888 ) ;
#17 = PLANE ( 'NONE',  #205 ) ;
#18 = DIRECTION ( 'NONE',  ( 1.000000000000000000, 0.000000000000000000, -0.000000000000000000 ) ) ;
#19 = CARTESIAN_POINT ( 'NONE',  ( -6.000000000000000888, 0.000000000000000000, 5.000000000000000000 ) ) ;
#20 = FACE_OUTER_BOUND ( 'NONE', #36, .T. ) ;
#21 = VECTOR ( 'NONE', #118, 1000.000000000000000 ) ;
#22 = APPROVAL_ROLE ( '' ) ;
#23 = UNCERTAINTY_MEASURE_WITH_UNIT (LENGTH_MEASURE( 1.000000000000000082E-05 ), #51, 'distance_accuracy_value', 'NONE');
#24 = DIRECTION ( 'NONE',  ( 1.000000000000000000, 0.000000000000000000, 0.000000000000000000 ) ) ;
#25 = CARTESIAN_POINT ( 'NONE',  ( 0.000000000000000000, 0.000000000000000000, 5.000000000000000000 ) ) ;
#26 = LOCAL_TIME ( 11, 56, 57.00000000000000000, #295 ) ;
#27 = DATE_AND_TIME ( #250, #48 ) ;
#28 = CIRCLE ( 'NONE', #109, 3.100000000000000089 ) ;
#29 = LOCAL_TIME ( 11, 56, 57.00000000000000000, #82 ) ;
#30 = VERTEX_POINT ( 'NONE', #112 ) ;
#31 = CC_DESIGN_PERSON_AND_ORGANIZATION_ASSIGNMENT ( #57, #231, ( #94 ) ) ;
#32 = ORIENTED_EDGE ( 'NONE', *, *, #188, .T. ) ;
#33 = ORIENTED_EDGE ( 'NONE', *, *, #188, .F. ) ;
#34 = EDGE_CURVE ( 'NONE', #11, #161, #16, .T. ) ;
#35 = EDGE_LOOP ( 'NONE', ( #211, #234 ) ) ;
#36 = EDGE_LOOP ( 'NONE', ( #290, #78, #232, #32 ) ) ;
#37 = DIRECTION ( 'NONE',  ( 1.000000000000000000, 0.000000000000000000, 0.000000000000000000 ) ) ;
#38 = AXIS2_PLACEMENT_3D ( 'NONE', #265, #47, #244 ) ;
#39 = DIRECTION ( 'NONE',  ( 1.000000000000000000, 0.000000000000000000, 0.000000000000000000 ) ) ;
#40 = DIRECTION ( 'NONE',  ( 1.000000000000000000, 0.000000000000000000, 0.000000000000000000 ) ) ;
#41 = EDGE_CURVE ( 'NONE', #107, #105, #69, .T. ) ;
#42 = PLANE ( 'NONE',  #186 ) ;
#43 = CARTESIAN_POINT ( 'NONE',  ( 0.000000000000000000, 0.000000000000000000, 130.0000000000000000 ) ) ;
#44 = AXIS2_PLACEMENT_3D ( 'NONE', #215, #165, #262 ) ;
#45 = CARTESIAN_POINT ( 'NONE',  ( 0.000000000000000000, 0.000000000000000000, 130.0000000000000000 ) ) ;
#46 = CIRCLE ( 'NONE', #164, 6.000000000000000888 ) ;
#47 = DIRECTION ( 'NONE',  ( 0.000000000000000000, 0.000000000000000000, 1.000000000000000000 ) ) ;
#48 = LOCAL_TIME ( 11, 56, 57.00000000000000000, #273 ) ;
#49 = ADVANCED_FACE ( 'NONE', ( #185 ), #66, .F. ) ;
#50 = EDGE_CURVE ( 'NONE', #253, #105, #169, .T. ) ;
#51 =( LENGTH_UNIT ( ) NAMED_UNIT ( * ) SI_UNIT ( .MILLI., .METRE. ) );
#52 = PERSON_AND_ORGANIZATION_ROLE ( 'creator' ) ;
#53 = EDGE_LOOP ( 'NONE', ( #294, #296, #13, #179 ) ) ;
#54 = PRODUCT_DEFINITION ( 'NEZNÁMÝ', '', #94, #71 ) ;
#55 = SHAPE_DEFINITION_REPRESENTATION ( #220, #4 ) ;
#56 = EDGE_LOOP ( 'NONE', ( #235, #181, #177, #271 ) ) ;
#57 = PERSON_AND_ORGANIZATION ( #75, #81 ) ;
#58 = ORIENTED_EDGE ( 'NONE', *, *, #297, .T. ) ;
#59 = PERSON_AND_ORGANIZATION ( #75, #81 ) ;
#60 = VERTEX_POINT ( 'NONE', #302 ) ;
#61 = AXIS2_PLACEMENT_3D ( 'NONE', #289, #197, #218 ) ;
#62 = SECURITY_CLASSIFICATION ( '', '', #79 ) ;
#63 = EDGE_LOOP ( 'NONE', ( #194, #292, #158, #133 ) ) ;
#64 = EDGE_CURVE ( 'NONE', #269, #253, #89, .T. ) ;
#65 = DIRECTION ( 'NONE',  ( 0.000000000000000000, 0.000000000000000000, 1.000000000000000000 ) ) ;
#66 = PLANE ( 'NONE',  #224 ) ;
#67 = PRODUCT_RELATED_PRODUCT_CATEGORY ( 'detail', '', ( #225 ) ) ;
#68 = DIRECTION ( 'NONE',  ( -0.000000000000000000, -0.000000000000000000, -1.000000000000000000 ) ) ;
#69 = CIRCLE ( 'NONE', #287, 3.299999999999999822 ) ;
#70 = CARTESIAN_POINT ( 'NONE',  ( 0.000000000000000000, 0.000000000000000000, 130.0000000000000000 ) ) ;
#71 = DESIGN_CONTEXT ( 'detailed design', #195, 'design' ) ;
#72 = APPROVAL_STATUS ( 'not_yet_approved' ) ;
#73 = VECTOR ( 'NONE', #256, 1000.000000000000000 ) ;
#74 = DIRECTION ( 'NONE',  ( 0.000000000000000000, 0.000000000000000000, 1.000000000000000000 ) ) ;
#75 = PERSON ( 'NEURÈENÝ', 'NEURÈENÝ', 'NEURÈENÝ', ('NEURÈENÝ'), ('NEURÈENÝ'), ('NEURÈENÝ') ) ;
#76 = PERSON_AND_ORGANIZATION_ROLE ( 'design_owner' ) ;
#77 = AXIS2_PLACEMENT_3D ( 'NONE', #213, #279, #240 ) ;
#78 = ORIENTED_EDGE ( 'NONE', *, *, #203, .F. ) ;
#79 = SECURITY_CLASSIFICATION_LEVEL ( 'unclassified' ) ;
#80 = DIRECTION ( 'NONE',  ( 1.000000000000000000, 0.000000000000000000, 0.000000000000000000 ) ) ;
#81 = ORGANIZATION ( 'NEURÈENÝ', 'NEURÈENÝ', '' ) ;
#82 = COORDINATED_UNIVERSAL_TIME_OFFSET ( 1, 0, .AHEAD. ) ;
#83 = VERTEX_POINT ( 'NONE', #303 ) ;
#84 = MANIFOLD_SOLID_BREP ( 'Zaoblit1', #182 ) ;
#85 = CARTESIAN_POINT ( 'NONE',  ( 0.000000000000000000, 0.000000000000000000, 5.000000000000000000 ) ) ;
#86 = CC_DESIGN_PERSON_AND_ORGANIZATION_ASSIGNMENT ( #5, #76, ( #225 ) ) ;
#87 = DIRECTION ( 'NONE',  ( -0.000000000000000000, -0.000000000000000000, -1.000000000000000000 ) ) ;
#88 = CARTESIAN_POINT ( 'NONE',  ( 3.299999999999999822, 0.000000000000000000, 4.999999999999998224 ) ) ;
#89 = LINE ( 'NONE', #144, #282 ) ;
#90 = CC_DESIGN_PERSON_AND_ORGANIZATION_ASSIGNMENT ( #59, #130, ( #94 ) ) ;
#91 = AXIS2_PLACEMENT_3D ( 'NONE', #148, #65, #39 ) ;
#92 = CYLINDRICAL_SURFACE ( 'NONE', #132, 3.100000000000000089 ) ;
#93 = AXIS2_PLACEMENT_3D ( 'NONE', #187, #117, #37 ) ;
#94 = PRODUCT_DEFINITION_FORMATION_WITH_SPECIFIED_SOURCE ( 'LIBOVOLNÝ', '', #225, .NOT_KNOWN. ) ;
#95 = DIRECTION ( 'NONE',  ( 0.000000000000000000, 0.000000000000000000, 1.000000000000000000 ) ) ;
#96 = CARTESIAN_POINT ( 'NONE',  ( 0.000000000000000000, 0.000000000000000000, 5.199999999999996625 ) ) ;
#97 =( NAMED_UNIT ( * ) PLANE_ANGLE_UNIT ( ) SI_UNIT ( $, .RADIAN. ) );
#98 = DIRECTION ( 'NONE',  ( 0.000000000000000000, 0.000000000000000000, 1.000000000000000000 ) ) ;
#99 = FACE_OUTER_BOUND ( 'NONE', #53, .T. ) ;
#100 = ADVANCED_FACE ( 'NONE', ( #189 ), #192, .T. ) ;
#101 = CARTESIAN_POINT ( 'NONE',  ( 6.000000000000000888, 7.347880794884120722E-16, 5.000000000000000000 ) ) ;
#102 = ORIENTED_EDGE ( 'NONE', *, *, #203, .T. ) ;
#103 = CARTESIAN_POINT ( 'NONE',  ( 0.000000000000000000, 0.000000000000000000, 5.000000000000000000 ) ) ;
#104 = PERSON_AND_ORGANIZATION_ROLE ( 'classification_officer' ) ;
#105 = VERTEX_POINT ( 'NONE', #214 ) ;
#106 = PERSON_AND_ORGANIZATION ( #75, #81 ) ;
#107 = VERTEX_POINT ( 'NONE', #88 ) ;
#108 = EDGE_LOOP ( 'NONE', ( #251, #160 ) ) ;
#109 = AXIS2_PLACEMENT_3D ( 'NONE', #223, #193, #24 ) ;
#110 = EDGE_LOOP ( 'NONE', ( #200, #58 ) ) ;
#111 = CC_DESIGN_DATE_AND_TIME_ASSIGNMENT ( #275, #247, ( #54 ) ) ;
#112 = CARTESIAN_POINT ( 'NONE',  ( -6.000000000000000888, 0.000000000000000000, 5.000000000000000000 ) ) ;
#113 = DIRECTION ( 'NONE',  ( 0.000000000000000000, 0.000000000000000000, 1.000000000000000000 ) ) ;
#114 = CIRCLE ( 'NONE', #284, 3.100000000000000089 ) ;
#115 = CC_DESIGN_APPROVAL ( #138, ( #54 ) ) ;
#116 = CARTESIAN_POINT ( 'NONE',  ( 0.000000000000000000, 0.000000000000000000, 130.0000000000000000 ) ) ;
#117 = DIRECTION ( 'NONE',  ( 0.000000000000000000, 0.000000000000000000, 1.000000000000000000 ) ) ;
#118 = DIRECTION ( 'NONE',  ( -0.000000000000000000, -0.000000000000000000, -1.000000000000000000 ) ) ;
#119 = CIRCLE ( 'NONE', #44, 3.100000000000000089 ) ;
#120 = APPROVAL_PERSON_ORGANIZATION ( #291, #145, #12 ) ;
#121 = DIRECTION ( 'NONE',  ( -0.000000000000000000, -0.000000000000000000, -1.000000000000000000 ) ) ;
#122 = COORDINATED_UNIVERSAL_TIME_OFFSET ( 1, 0, .AHEAD. ) ;
#123 = DIRECTION ( 'NONE',  ( -0.000000000000000000, -0.000000000000000000, -1.000000000000000000 ) ) ;
#124 = DIRECTION ( 'NONE',  ( -1.000000000000000000, 0.000000000000000000, 0.000000000000000000 ) ) ;
#125 = AXIS2_PLACEMENT_3D ( 'NONE', #116, #260, #166 ) ;
#126 = APPLICATION_CONTEXT ( 'configuration controlled 3d designs of mechanical parts and assemblies' ) ;
#127 = DIRECTION ( 'NONE',  ( -0.000000000000000000, -0.000000000000000000, -1.000000000000000000 ) ) ;
#128 = CALENDAR_DATE ( 2022, 20, 6 ) ;
#129 = AXIS2_PLACEMENT_3D ( 'NONE', #25, #74, #226 ) ;
#130 = PERSON_AND_ORGANIZATION_ROLE ( 'creator' ) ;
#131 = DIRECTION ( 'NONE',  ( 1.000000000000000000, 0.000000000000000000, 0.000000000000000000 ) ) ;
#132 = AXIS2_PLACEMENT_3D ( 'NONE', #43, #121, #142 ) ;
#133 = ORIENTED_EDGE ( 'NONE', *, *, #34, .T. ) ;
#134 = ORIENTED_EDGE ( 'NONE', *, *, #306, .F. ) ;
#135 = ADVANCED_FACE ( 'NONE', ( #20 ), #92, .T. ) ;
#136 = DIRECTION ( 'NONE',  ( -1.000000000000000000, 0.000000000000000000, 0.000000000000000000 ) ) ;
#137 = EDGE_LOOP ( 'NONE', ( #255, #134, #209, #202 ) ) ;
#138 = APPROVAL ( #72, 'NEURÈENÝ' ) ;
#139 = DIRECTION ( 'NONE',  ( 1.224646799147353207E-16, 1.000000000000000000, -0.000000000000000000 ) ) ;
#140 =( GEOMETRIC_REPRESENTATION_CONTEXT ( 3 ) GLOBAL_UNCERTAINTY_ASSIGNED_CONTEXT ( ( #23 ) ) GLOBAL_UNIT_ASSIGNED_CONTEXT ( ( #51, #97, #246 ) ) REPRESENTATION_CONTEXT ( 'NONE', 'WORKASPACE' ) );
#141 = LOCAL_TIME ( 11, 56, 57.00000000000000000, #178 ) ;
#142 = DIRECTION ( 'NONE',  ( -1.000000000000000000, 0.000000000000000000, 0.000000000000000000 ) ) ;
#143 = DIRECTION ( 'NONE',  ( -1.000000000000000000, 1.224646799147353207E-16, 0.000000000000000000 ) ) ;
#144 = CARTESIAN_POINT ( 'NONE',  ( -3.100000000000000089, 0.000000000000000000, 130.0000000000000000 ) ) ;
#145 = APPROVAL ( #154, 'NEURÈENÝ' ) ;
#146 = EDGE_CURVE ( 'NONE', #30, #274, #46, .T. ) ;
#147 = ADVANCED_FACE ( 'NONE', ( #167 ), #150, .F. ) ;
#148 = CARTESIAN_POINT ( 'NONE',  ( 0.000000000000000000, 0.000000000000000000, 5.199999999999996625 ) ) ;
#149 = CARTESIAN_POINT ( 'NONE',  ( -3.100000000000000089, 0.000000000000000000, 130.0000000000000000 ) ) ;
#150 = TOROIDAL_SURFACE ( 'NONE', #91, 3.299999999999999822, 0.2000000000000000111 ) ;
#151 = CC_DESIGN_PERSON_AND_ORGANIZATION_ASSIGNMENT ( #201, #52, ( #54 ) ) ;
#152 = LINE ( 'NONE', #242, #6 ) ;
#153 = LOCAL_TIME ( 11, 56, 57.00000000000000000, #122 ) ;
#154 = APPROVAL_STATUS ( 'not_yet_approved' ) ;
#155 = EDGE_CURVE ( 'NONE', #83, #269, #264, .T. ) ;
#156 = CALENDAR_DATE ( 2022, 20, 6 ) ;
#157 = CIRCLE ( 'NONE', #227, 6.000000000000000888 ) ;
#158 = ORIENTED_EDGE ( 'NONE', *, *, #173, .T. ) ;
#159 = CC_DESIGN_APPROVAL ( #3, ( #94 ) ) ;
#160 = ORIENTED_EDGE ( 'NONE', *, *, #293, .F. ) ;
#161 = VERTEX_POINT ( 'NONE', #190 ) ;
#162 = ADVANCED_FACE ( 'NONE', ( #257 ), #17, .T. ) ;
#163 = ORIENTED_EDGE ( 'NONE', *, *, #41, .F. ) ;
#164 = AXIS2_PLACEMENT_3D ( 'NONE', #283, #191, #281 ) ;
#165 = DIRECTION ( 'NONE',  ( 0.000000000000000000, 0.000000000000000000, 1.000000000000000000 ) ) ;
#166 = DIRECTION ( 'NONE',  ( 1.000000000000000000, 0.000000000000000000, 0.000000000000000000 ) ) ;
#167 = FACE_OUTER_BOUND ( 'NONE', #276, .T. ) ;
#168 = FACE_BOUND ( 'NONE', #35, .T. ) ;
#169 = CIRCLE ( 'NONE', #219, 0.2000000000000000944 ) ;
#170 = ADVANCED_FACE ( 'NONE', ( #307 ), #174, .F. ) ;
#171 = DIRECTION ( 'NONE',  ( 1.000000000000000000, 0.000000000000000000, -0.000000000000000000 ) ) ;
#172 = CARTESIAN_POINT ( 'NONE',  ( 0.000000000000000000, 0.000000000000000000, 0.000000000000000000 ) ) ;
#173 = EDGE_CURVE ( 'NONE', #30, #11, #305, .T. ) ;
#174 = TOROIDAL_SURFACE ( 'NONE', #93, 3.299999999999999822, 0.2000000000000000111 ) ;
#175 = CARTESIAN_POINT ( 'NONE',  ( -3.100000000000000089, 0.000000000000000000, 5.199999999999996625 ) ) ;
#176 = APPLICATION_PROTOCOL_DEFINITION ( 'international standard', 'config_control_design', 1994, #195 ) ;
#177 = ORIENTED_EDGE ( 'NONE', *, *, #293, .T. ) ;
#178 = COORDINATED_UNIVERSAL_TIME_OFFSET ( 1, 0, .AHEAD. ) ;
#179 = ORIENTED_EDGE ( 'NONE', *, *, #64, .F. ) ;
#180 = CC_DESIGN_DATE_AND_TIME_ASSIGNMENT ( #8, #208, ( #62 ) ) ;
#181 = ORIENTED_EDGE ( 'NONE', *, *, #258, .T. ) ;
#182 = CLOSED_SHELL ( 'NONE', ( #147, #254, #7, #100, #207, #49, #135, #162, #170 ) ) ;
#183 = ORIENTED_EDGE ( 'NONE', *, *, #50, .T. ) ;
#184 = APPROVAL_STATUS ( 'not_yet_approved' ) ;
#185 = FACE_OUTER_BOUND ( 'NONE', #108, .T. ) ;
#186 = AXIS2_PLACEMENT_3D ( 'NONE', #217, #113, #212 ) ;
#187 = CARTESIAN_POINT ( 'NONE',  ( 0.000000000000000000, 0.000000000000000000, 5.199999999999996625 ) ) ;
#188 = EDGE_CURVE ( 'NONE', #253, #60, #114, .T. ) ;
#189 = FACE_OUTER_BOUND ( 'NONE', #63, .T. ) ;
#190 = CARTESIAN_POINT ( 'NONE',  ( 6.000000000000000888, 7.347880794884120722E-16, 0.000000000000000000 ) ) ;
#191 = DIRECTION ( 'NONE',  ( 0.000000000000000000, 0.000000000000000000, 1.000000000000000000 ) ) ;
#192 = CYLINDRICAL_SURFACE ( 'NONE', #77, 6.000000000000000888 ) ;
#193 = DIRECTION ( 'NONE',  ( 0.000000000000000000, 0.000000000000000000, 1.000000000000000000 ) ) ;
#194 = ORIENTED_EDGE ( 'NONE', *, *, #258, .F. ) ;
#195 = APPLICATION_CONTEXT ( 'configuration controlled 3d designs of mechanical parts and assemblies' ) ;
#196 = AXIS2_PLACEMENT_3D ( 'NONE', #103, #123, #2 ) ;
#197 = DIRECTION ( 'NONE',  ( 0.000000000000000000, -1.000000000000000000, 0.000000000000000000 ) ) ;
#198 = EDGE_CURVE ( 'NONE', #83, #60, #236, .T. ) ;
#199 = APPROVAL_ROLE ( '' ) ;
#200 = ORIENTED_EDGE ( 'NONE', *, *, #146, .T. ) ;
#201 = PERSON_AND_ORGANIZATION ( #75, #81 ) ;
#202 = ORIENTED_EDGE ( 'NONE', *, *, #245, .F. ) ;
#203 = EDGE_CURVE ( 'NONE', #269, #83, #119, .T. ) ;
#204 = DATE_AND_TIME ( #9, #153 ) ;
#205 = AXIS2_PLACEMENT_3D ( 'NONE', #70, #238, #171 ) ;
#206 = CYLINDRICAL_SURFACE ( 'NONE', #278, 6.000000000000000888 ) ;
#207 = ADVANCED_FACE ( 'NONE', ( #168, #261 ), #42, .T. ) ;
#208 = DATE_TIME_ROLE ( 'classification_date' ) ;
#209 = ORIENTED_EDGE ( 'NONE', *, *, #288, .T. ) ;
#210 = APPROVAL_DATE_TIME ( #233, #3 ) ;
#211 = ORIENTED_EDGE ( 'NONE', *, *, #41, .T. ) ;
#212 = DIRECTION ( 'NONE',  ( 1.000000000000000000, 0.000000000000000000, -0.000000000000000000 ) ) ;
#213 = CARTESIAN_POINT ( 'NONE',  ( 0.000000000000000000, 0.000000000000000000, 5.000000000000000000 ) ) ;
#214 = CARTESIAN_POINT ( 'NONE',  ( -3.299999999999999822, 4.041334437186265510E-16, 4.999999999999998224 ) ) ;
#215 = CARTESIAN_POINT ( 'NONE',  ( 0.000000000000000000, 0.000000000000000000, 130.0000000000000000 ) ) ;
#216 = CC_DESIGN_APPROVAL ( #145, ( #62 ) ) ;
#217 = CARTESIAN_POINT ( 'NONE',  ( 0.000000000000000000, 0.000000000000000000, 5.000000000000000000 ) ) ;
#218 = DIRECTION ( 'NONE',  ( 0.000000000000000000, 0.000000000000000000, -1.000000000000000000 ) ) ;
#219 = AXIS2_PLACEMENT_3D ( 'NONE', #277, #139, #143 ) ;
#220 = PRODUCT_DEFINITION_SHAPE ( 'NONE', 'NONE',  #54 ) ;
#221 = CYLINDRICAL_SURFACE ( 'NONE', #300, 3.100000000000000089 ) ;
#222 = APPLICATION_PROTOCOL_DEFINITION ( 'international standard', 'config_control_design', 1994, #126 ) ;
#223 = CARTESIAN_POINT ( 'NONE',  ( 0.000000000000000000, 0.000000000000000000, 5.199999999999996625 ) ) ;
#224 = AXIS2_PLACEMENT_3D ( 'NONE', #280, #304, #18 ) ;
#225 = PRODUCT ( '1cf0', '1cf0', '', ( #266 ) ) ;
#226 = DIRECTION ( 'NONE',  ( 1.000000000000000000, 0.000000000000000000, 0.000000000000000000 ) ) ;
#227 = AXIS2_PLACEMENT_3D ( 'NONE', #172, #98, #1 ) ;
#228 = CARTESIAN_POINT ( 'NONE',  ( 0.000000000000000000, 0.000000000000000000, 5.000000000000000000 ) ) ;
#229 = PERSON_AND_ORGANIZATION ( #75, #81 ) ;
#230 = ORIENTED_EDGE ( 'NONE', *, *, #155, .T. ) ;
#231 = PERSON_AND_ORGANIZATION_ROLE ( 'design_supplier' ) ;
#232 = ORIENTED_EDGE ( 'NONE', *, *, #64, .T. ) ;
#233 = DATE_AND_TIME ( #128, #141 ) ;
#234 = ORIENTED_EDGE ( 'NONE', *, *, #245, .T. ) ;
#235 = ORIENTED_EDGE ( 'NONE', *, *, #297, .F. ) ;
#236 = LINE ( 'NONE', #239, #21 ) ;
#237 = CC_DESIGN_PERSON_AND_ORGANIZATION_ASSIGNMENT ( #106, #104, ( #62 ) ) ;
#238 = DIRECTION ( 'NONE',  ( 0.000000000000000000, 0.000000000000000000, 1.000000000000000000 ) ) ;
#239 = CARTESIAN_POINT ( 'NONE',  ( 3.100000000000000089, 3.796405077356794918E-16, 130.0000000000000000 ) ) ;
#240 = DIRECTION ( 'NONE',  ( -1.000000000000000000, 0.000000000000000000, 0.000000000000000000 ) ) ;
#241 = CIRCLE ( 'NONE', #129, 6.000000000000000888 ) ;
#242 = CARTESIAN_POINT ( 'NONE',  ( 6.000000000000000888, 7.347880794884120722E-16, 5.000000000000000000 ) ) ;
#243 = CIRCLE ( 'NONE', #61, 0.1999999999999996503 ) ;
#244 = DIRECTION ( 'NONE',  ( 1.000000000000000000, 0.000000000000000000, 0.000000000000000000 ) ) ;
#245 = EDGE_CURVE ( 'NONE', #105, #107, #263, .T. ) ;
#246 =( NAMED_UNIT ( * ) SI_UNIT ( $, .STERADIAN. ) SOLID_ANGLE_UNIT ( ) );
#247 = DATE_TIME_ROLE ( 'creation_date' ) ;
#248 = CALENDAR_DATE ( 2022, 20, 6 ) ;
#249 = CARTESIAN_POINT ( 'NONE',  ( 0.000000000000000000, 0.000000000000000000, 0.000000000000000000 ) ) ;
#250 = CALENDAR_DATE ( 2022, 20, 6 ) ;
#251 = ORIENTED_EDGE ( 'NONE', *, *, #34, .F. ) ;
#252 = EDGE_LOOP ( 'NONE', ( #102, #230 ) ) ;
#253 = VERTEX_POINT ( 'NONE', #175 ) ;
#254 = ADVANCED_FACE ( 'NONE', ( #99 ), #221, .T. ) ;
#255 = ORIENTED_EDGE ( 'NONE', *, *, #50, .F. ) ;
#256 = DIRECTION ( 'NONE',  ( -0.000000000000000000, -0.000000000000000000, -1.000000000000000000 ) ) ;
#257 = FACE_OUTER_BOUND ( 'NONE', #252, .T. ) ;
#258 = EDGE_CURVE ( 'NONE', #274, #161, #152, .T. ) ;
#259 = APPROVAL_PERSON_ORGANIZATION ( #267, #138, #22 ) ;
#260 = DIRECTION ( 'NONE',  ( 0.000000000000000000, 0.000000000000000000, 1.000000000000000000 ) ) ;
#261 = FACE_OUTER_BOUND ( 'NONE', #110, .T. ) ;
#262 = DIRECTION ( 'NONE',  ( 1.000000000000000000, 0.000000000000000000, 0.000000000000000000 ) ) ;
#263 = CIRCLE ( 'NONE', #196, 3.299999999999999822 ) ;
#264 = CIRCLE ( 'NONE', #125, 3.100000000000000089 ) ;
#265 = CARTESIAN_POINT ( 'NONE',  ( 0.000000000000000000, 0.000000000000000000, 0.000000000000000000 ) ) ;
#266 = MECHANICAL_CONTEXT ( 'NONE', #126, 'mechanical' ) ;
#267 = PERSON_AND_ORGANIZATION ( #75, #81 ) ;
#268 = AXIS2_PLACEMENT_3D ( 'NONE', #249, #299, #131 ) ;
#269 = VERTEX_POINT ( 'NONE', #149 ) ;
#270 = APPROVAL_DATE_TIME ( #204, #138 ) ;
#271 = ORIENTED_EDGE ( 'NONE', *, *, #173, .F. ) ;
#272 = ORIENTED_EDGE ( 'NONE', *, *, #288, .F. ) ;
#273 = COORDINATED_UNIVERSAL_TIME_OFFSET ( 1, 0, .AHEAD. ) ;
#274 = VERTEX_POINT ( 'NONE', #101 ) ;
#275 = DATE_AND_TIME ( #156, #26 ) ;
#276 = EDGE_LOOP ( 'NONE', ( #33, #183, #163, #272 ) ) ;
#277 = CARTESIAN_POINT ( 'NONE',  ( -3.299999999999999822, 4.041334437186265510E-16, 5.199999999999996625 ) ) ;
#278 = AXIS2_PLACEMENT_3D ( 'NONE', #85, #87, #136 ) ;
#279 = DIRECTION ( 'NONE',  ( -0.000000000000000000, -0.000000000000000000, -1.000000000000000000 ) ) ;
#280 = CARTESIAN_POINT ( 'NONE',  ( 0.000000000000000000, 0.000000000000000000, 0.000000000000000000 ) ) ;
#281 = DIRECTION ( 'NONE',  ( 1.000000000000000000, 0.000000000000000000, 0.000000000000000000 ) ) ;
#282 = VECTOR ( 'NONE', #68, 1000.000000000000000 ) ;
#283 = CARTESIAN_POINT ( 'NONE',  ( 0.000000000000000000, 0.000000000000000000, 5.000000000000000000 ) ) ;
#284 = AXIS2_PLACEMENT_3D ( 'NONE', #96, #95, #40 ) ;
#285 = APPROVAL_PERSON_ORGANIZATION ( #229, #3, #199 ) ;
#286 = DIRECTION ( 'NONE',  ( -0.000000000000000000, -0.000000000000000000, -1.000000000000000000 ) ) ;
#287 = AXIS2_PLACEMENT_3D ( 'NONE', #228, #10, #80 ) ;
#288 = EDGE_CURVE ( 'NONE', #60, #107, #243, .T. ) ;
#289 = CARTESIAN_POINT ( 'NONE',  ( 3.299999999999999822, 0.000000000000000000, 5.199999999999996625 ) ) ;
#290 = ORIENTED_EDGE ( 'NONE', *, *, #198, .F. ) ;
#291 = PERSON_AND_ORGANIZATION ( #75, #81 ) ;
#292 = ORIENTED_EDGE ( 'NONE', *, *, #146, .F. ) ;
#293 = EDGE_CURVE ( 'NONE', #161, #11, #157, .T. ) ;
#294 = ORIENTED_EDGE ( 'NONE', *, *, #155, .F. ) ;
#295 = COORDINATED_UNIVERSAL_TIME_OFFSET ( 1, 0, .AHEAD. ) ;
#296 = ORIENTED_EDGE ( 'NONE', *, *, #198, .T. ) ;
#297 = EDGE_CURVE ( 'NONE', #274, #30, #241, .T. ) ;
#298 = FACE_OUTER_BOUND ( 'NONE', #56, .T. ) ;
#299 = DIRECTION ( 'NONE',  ( 0.000000000000000000, 0.000000000000000000, 1.000000000000000000 ) ) ;
#300 = AXIS2_PLACEMENT_3D ( 'NONE', #45, #127, #124 ) ;
#301 = CC_DESIGN_SECURITY_CLASSIFICATION ( #62, ( #94 ) ) ;
#302 = CARTESIAN_POINT ( 'NONE',  ( 3.100000000000000089, 3.796405077356794918E-16, 5.199999999999996625 ) ) ;
#303 = CARTESIAN_POINT ( 'NONE',  ( 3.100000000000000089, 3.796405077356794918E-16, 130.0000000000000000 ) ) ;
#304 = DIRECTION ( 'NONE',  ( 0.000000000000000000, 0.000000000000000000, 1.000000000000000000 ) ) ;
#305 = LINE ( 'NONE', #19, #73 ) ;
#306 = EDGE_CURVE ( 'NONE', #60, #253, #28, .T. ) ;
#307 = FACE_OUTER_BOUND ( 'NONE', #137, .T. ) ;
ENDSEC;
END-ISO-10303-21;
