ISO-10303-21;
HEADER;
FILE_DESCRIPTION (( 'STEP AP203' ),
    '1' );
FILE_NAME ('006b.STEP',
    '2022-06-20T10:07:02',
    ( '' ),
    ( '' ),
    'SwSTEP 2.0',
    'SolidWorks 2019',
    '' );
FILE_SCHEMA (( 'CONFIG_CONTROL_DESIGN' ));
ENDSEC;

DATA;
#1 = CC_DESIGN_DATE_AND_TIME_ASSIGNMENT ( #40, #118, ( #199 ) ) ;
#2 = DIRECTION ( 'NONE',  ( 0.000000000000000000, 0.000000000000000000, 1.000000000000000000 ) ) ;
#3 = CARTESIAN_POINT ( 'NONE',  ( 0.000000000000000000, 0.000000000000000000, 3.000000000000000000 ) ) ;
#4 = PERSON_AND_ORGANIZATION_ROLE ( 'design_supplier' ) ;
#5 = CARTESIAN_POINT ( 'NONE',  ( 0.000000000000000000, 0.000000000000000000, 503.0000000000000000 ) ) ;
#6 = CC_DESIGN_PERSON_AND_ORGANIZATION_ASSIGNMENT ( #11, #4, ( #87 ) ) ;
#7 = VECTOR ( 'NONE', #152, 1000.000000000000000 ) ;
#8 = CARTESIAN_POINT ( 'NONE',  ( -2.300000000000000266, 2.816687638038912549E-16, 3.199999999999980638 ) ) ;
#9 = DIRECTION ( 'NONE',  ( -0.000000000000000000, -0.000000000000000000, -1.000000000000000000 ) ) ;
#10 = DIRECTION ( 'NONE',  ( 1.000000000000000000, 0.000000000000000000, 0.000000000000000000 ) ) ;
#11 = PERSON_AND_ORGANIZATION ( #89, #283 ) ;
#12 = CARTESIAN_POINT ( 'NONE',  ( 0.000000000000000000, 0.000000000000000000, 0.000000000000000000 ) ) ;
#13 = CIRCLE ( 'NONE', #143, 2.300000000000000266 ) ;
#14 = DIRECTION ( 'NONE',  ( 0.000000000000000000, 0.000000000000000000, 1.000000000000000000 ) ) ;
#15 = DIRECTION ( 'NONE',  ( 0.000000000000000000, 0.000000000000000000, 1.000000000000000000 ) ) ;
#16 = LINE ( 'NONE', #176, #104 ) ;
#17 = TOROIDAL_SURFACE ( 'NONE', #68, 2.300000000000000266, 0.2000000000000000111 ) ;
#18 = LOCAL_TIME ( 12, 7, 2.000000000000000000, #103 ) ;
#19 = ORIENTED_EDGE ( 'NONE', *, *, #285, .T. ) ;
#20 = PRODUCT_RELATED_PRODUCT_CATEGORY ( 'detail', '', ( #26 ) ) ;
#21 = EDGE_LOOP ( 'NONE', ( #19, #70 ) ) ;
#22 = EDGE_CURVE ( 'NONE', #160, #53, #50, .T. ) ;
#23 = AXIS2_PLACEMENT_3D ( 'NONE', #31, #166, #119 ) ;
#24 = DIRECTION ( 'NONE',  ( 1.000000000000000000, 0.000000000000000000, -0.000000000000000000 ) ) ;
#25 = APPROVAL ( #301, 'NEURÈENÝ' ) ;
#26 = PRODUCT ( '006b', '006b', '', ( #261 ) ) ;
#27 = DIRECTION ( 'NONE',  ( 1.000000000000000000, 0.000000000000000000, 0.000000000000000000 ) ) ;
#28 = CC_DESIGN_APPROVAL ( #299, ( #199 ) ) ;
#29 = CC_DESIGN_APPROVAL ( #25, ( #127 ) ) ;
#30 = DIRECTION ( 'NONE',  ( 0.000000000000000000, 0.000000000000000000, 1.000000000000000000 ) ) ;
#31 = CARTESIAN_POINT ( 'NONE',  ( 0.000000000000000000, 0.000000000000000000, 3.199999999999980638 ) ) ;
#32 = DIRECTION ( 'NONE',  ( -0.000000000000000000, -0.000000000000000000, -1.000000000000000000 ) ) ;
#33 = CALENDAR_DATE ( 2022, 20, 6 ) ;
#34 = EDGE_CURVE ( 'NONE', #305, #202, #210, .T. ) ;
#35 = DIRECTION ( 'NONE',  ( 1.000000000000000000, 0.000000000000000000, 0.000000000000000000 ) ) ;
#36 = AXIS2_PLACEMENT_3D ( 'NONE', #105, #9, #267 ) ;
#37 = APPLICATION_PROTOCOL_DEFINITION ( 'international standard', 'config_control_design', 1994, #189 ) ;
#38 = DIRECTION ( 'NONE',  ( -1.000000000000000000, 0.000000000000000000, 0.000000000000000000 ) ) ;
#39 = AXIS2_PLACEMENT_3D ( 'NONE', #114, #139, #24 ) ;
#40 = DATE_AND_TIME ( #116, #18 ) ;
#41 = APPROVAL_ROLE ( '' ) ;
#42 = LINE ( 'NONE', #128, #7 ) ;
#43 = EDGE_CURVE ( 'NONE', #164, #178, #246, .T. ) ;
#44 = CARTESIAN_POINT ( 'NONE',  ( 0.000000000000000000, 0.000000000000000000, 3.000000000000000000 ) ) ;
#45 = EDGE_LOOP ( 'NONE', ( #253, #280, #132, #247 ) ) ;
#46 = CIRCLE ( 'NONE', #99, 4.000000000000000000 ) ;
#47 = CARTESIAN_POINT ( 'NONE',  ( -4.000000000000000000, 0.000000000000000000, 3.000000000000000000 ) ) ;
#48 = ORIENTED_EDGE ( 'NONE', *, *, #268, .F. ) ;
#49 = EDGE_LOOP ( 'NONE', ( #48, #306 ) ) ;
#50 = CIRCLE ( 'NONE', #173, 2.300000000000000266 ) ;
#51 = ORIENTED_EDGE ( 'NONE', *, *, #276, .F. ) ;
#52 = CARTESIAN_POINT ( 'NONE',  ( 2.300000000000000266, 0.000000000000000000, 2.999999999999990674 ) ) ;
#53 = VERTEX_POINT ( 'NONE', #229 ) ;
#54 = CARTESIAN_POINT ( 'NONE',  ( 2.300000000000000266, 0.000000000000000000, 3.199999999999980638 ) ) ;
#55 = PLANE ( 'NONE',  #153 ) ;
#56 = CLOSED_SHELL ( 'NONE', ( #163, #290, #61, #227, #147, #234, #206, #165, #130 ) ) ;
#57 = CARTESIAN_POINT ( 'NONE',  ( 0.000000000000000000, 0.000000000000000000, 503.0000000000000000 ) ) ;
#58 = CARTESIAN_POINT ( 'NONE',  ( 0.000000000000000000, 0.000000000000000000, 0.000000000000000000 ) ) ;
#59 = FACE_OUTER_BOUND ( 'NONE', #249, .T. ) ;
#60 = DIRECTION ( 'NONE',  ( 0.000000000000000000, 0.000000000000000000, 1.000000000000000000 ) ) ;
#61 = ADVANCED_FACE ( 'NONE', ( #101 ), #117, .T. ) ;
#62 = PRODUCT_DEFINITION_SHAPE ( 'NONE', 'NONE',  #199 ) ;
#63 = DIRECTION ( 'NONE',  ( -0.000000000000000000, -0.000000000000000000, -1.000000000000000000 ) ) ;
#64 = EDGE_CURVE ( 'NONE', #164, #160, #192, .T. ) ;
#65 = SHAPE_DEFINITION_REPRESENTATION ( #62, #122 ) ;
#66 = CIRCLE ( 'NONE', #300, 4.000000000000000000 ) ;
#67 = ORIENTED_EDGE ( 'NONE', *, *, #179, .F. ) ;
#68 = AXIS2_PLACEMENT_3D ( 'NONE', #236, #307, #213 ) ;
#69 = ORIENTED_EDGE ( 'NONE', *, *, #161, .F. ) ;
#70 = ORIENTED_EDGE ( 'NONE', *, *, #34, .T. ) ;
#71 = CC_DESIGN_PERSON_AND_ORGANIZATION_ASSIGNMENT ( #208, #124, ( #87 ) ) ;
#72 = AXIS2_PLACEMENT_3D ( 'NONE', #44, #15, #297 ) ;
#73 = VERTEX_POINT ( 'NONE', #263 ) ;
#74 = APPLICATION_PROTOCOL_DEFINITION ( 'international standard', 'config_control_design', 1994, #81 ) ;
#75 = DIRECTION ( 'NONE',  ( -1.000000000000000000, 1.224646799147353207E-16, 0.000000000000000000 ) ) ;
#76 = ORIENTED_EDGE ( 'NONE', *, *, #251, .F. ) ;
#77 = DIRECTION ( 'NONE',  ( -0.000000000000000000, -0.000000000000000000, -1.000000000000000000 ) ) ;
#78 = LOCAL_TIME ( 12, 7, 2.000000000000000000, #193 ) ;
#79 = APPROVAL ( #151, 'NEURÈENÝ' ) ;
#80 = DIRECTION ( 'NONE',  ( 1.224646799147353207E-16, 1.000000000000000000, -0.000000000000000000 ) ) ;
#81 = APPLICATION_CONTEXT ( 'configuration controlled 3d designs of mechanical parts and assemblies' ) ;
#82 = DIRECTION ( 'NONE',  ( 1.000000000000000000, 0.000000000000000000, 0.000000000000000000 ) ) ;
#83 =( LENGTH_UNIT ( ) NAMED_UNIT ( * ) SI_UNIT ( .MILLI., .METRE. ) );
#84 = DIRECTION ( 'NONE',  ( 1.000000000000000000, 0.000000000000000000, 0.000000000000000000 ) ) ;
#85 = CARTESIAN_POINT ( 'NONE',  ( 0.000000000000000000, 0.000000000000000000, 0.000000000000000000 ) ) ;
#86 = CC_DESIGN_PERSON_AND_ORGANIZATION_ASSIGNMENT ( #238, #171, ( #127 ) ) ;
#87 = PRODUCT_DEFINITION_FORMATION_WITH_SPECIFIED_SOURCE ( 'LIBOVOLNÝ', '', #26, .NOT_KNOWN. ) ;
#88 = EDGE_LOOP ( 'NONE', ( #106, #288, #252, #51 ) ) ;
#89 = PERSON ( 'NEURÈENÝ', 'NEURÈENÝ', 'NEURÈENÝ', ('NEURÈENÝ'), ('NEURÈENÝ'), ('NEURÈENÝ') ) ;
#90 = AXIS2_PLACEMENT_3D ( 'NONE', #85, #121, #245 ) ;
#91 = ORIENTED_EDGE ( 'NONE', *, *, #34, .F. ) ;
#92 = EDGE_CURVE ( 'NONE', #178, #53, #296, .T. ) ;
#93 = ORIENTED_EDGE ( 'NONE', *, *, #276, .T. ) ;
#94 = CIRCLE ( 'NONE', #72, 4.000000000000000000 ) ;
#95 = FACE_OUTER_BOUND ( 'NONE', #21, .T. ) ;
#96 = DIRECTION ( 'NONE',  ( 1.000000000000000000, 0.000000000000000000, 0.000000000000000000 ) ) ;
#97 = FACE_OUTER_BOUND ( 'NONE', #88, .T. ) ;
#98 = LINE ( 'NONE', #167, #237 ) ;
#99 = AXIS2_PLACEMENT_3D ( 'NONE', #172, #14, #84 ) ;
#100 = APPROVAL_STATUS ( 'not_yet_approved' ) ;
#101 = FACE_OUTER_BOUND ( 'NONE', #224, .T. ) ;
#102 = APPROVAL_ROLE ( '' ) ;
#103 = COORDINATED_UNIVERSAL_TIME_OFFSET ( 1, 0, .AHEAD. ) ;
#104 = VECTOR ( 'NONE', #63, 1000.000000000000000 ) ;
#105 = CARTESIAN_POINT ( 'NONE',  ( 0.000000000000000000, 0.000000000000000000, 3.000000000000000000 ) ) ;
#106 = ORIENTED_EDGE ( 'NONE', *, *, #92, .F. ) ;
#107 = ORIENTED_EDGE ( 'NONE', *, *, #137, .T. ) ;
#108 = MANIFOLD_SOLID_BREP ( 'Zaoblit1', #56 ) ;
#109 = EDGE_LOOP ( 'NONE', ( #91, #110, #226, #67 ) ) ;
#110 = ORIENTED_EDGE ( 'NONE', *, *, #161, .T. ) ;
#111 = ORIENTED_EDGE ( 'NONE', *, *, #251, .T. ) ;
#112 = LOCAL_TIME ( 12, 7, 2.000000000000000000, #277 ) ;
#113 = PERSON_AND_ORGANIZATION_ROLE ( 'creator' ) ;
#114 = CARTESIAN_POINT ( 'NONE',  ( 0.000000000000000000, 0.000000000000000000, 3.000000000000000000 ) ) ;
#115 = AXIS2_PLACEMENT_3D ( 'NONE', #191, #205, #27 ) ;
#116 = CALENDAR_DATE ( 2022, 20, 6 ) ;
#117 = CYLINDRICAL_SURFACE ( 'NONE', #158, 4.000000000000000000 ) ;
#118 = DATE_TIME_ROLE ( 'creation_date' ) ;
#119 = DIRECTION ( 'NONE',  ( 1.000000000000000000, 0.000000000000000000, 0.000000000000000000 ) ) ;
#120 = APPROVAL_ROLE ( '' ) ;
#121 = DIRECTION ( 'NONE',  ( 0.000000000000000000, 0.000000000000000000, 1.000000000000000000 ) ) ;
#122 = ADVANCED_BREP_SHAPE_REPRESENTATION ( '006b', ( #108, #260 ), #265 ) ;
#123 = TOROIDAL_SURFACE ( 'NONE', #23, 2.300000000000000266, 0.2000000000000000111 ) ;
#124 = PERSON_AND_ORGANIZATION_ROLE ( 'creator' ) ;
#125 = PLANE ( 'NONE',  #279 ) ;
#126 = DIRECTION ( 'NONE',  ( -1.000000000000000000, 0.000000000000000000, 0.000000000000000000 ) ) ;
#127 = SECURITY_CLASSIFICATION ( '', '', #195 ) ;
#128 = CARTESIAN_POINT ( 'NONE',  ( 4.000000000000000000, 4.898587196589412829E-16, 3.000000000000000000 ) ) ;
#129 = DATE_AND_TIME ( #264, #303 ) ;
#130 = ADVANCED_FACE ( 'NONE', ( #97 ), #123, .F. ) ;
#131 = VECTOR ( 'NONE', #32, 1000.000000000000000 ) ;
#132 = ORIENTED_EDGE ( 'NONE', *, *, #22, .F. ) ;
#133 = ORIENTED_EDGE ( 'NONE', *, *, #268, .T. ) ;
#134 = ORIENTED_EDGE ( 'NONE', *, *, #212, .F. ) ;
#135 = ORIENTED_EDGE ( 'NONE', *, *, #215, .T. ) ;
#136 = AXIS2_PLACEMENT_3D ( 'NONE', #257, #289, #216 ) ;
#137 = EDGE_CURVE ( 'NONE', #203, #73, #66, .T. ) ;
#138 = EDGE_LOOP ( 'NONE', ( #302, #93 ) ) ;
#139 = DIRECTION ( 'NONE',  ( 0.000000000000000000, 0.000000000000000000, 1.000000000000000000 ) ) ;
#140 = DESIGN_CONTEXT ( 'detailed design', #189, 'design' ) ;
#141 = ORIENTED_EDGE ( 'NONE', *, *, #259, .T. ) ;
#142 = CC_DESIGN_DATE_AND_TIME_ASSIGNMENT ( #129, #197, ( #127 ) ) ;
#143 = AXIS2_PLACEMENT_3D ( 'NONE', #275, #159, #248 ) ;
#144 = FACE_OUTER_BOUND ( 'NONE', #282, .T. ) ;
#145 = AXIS2_PLACEMENT_3D ( 'NONE', #8, #80, #75 ) ;
#146 = DIRECTION ( 'NONE',  ( 0.000000000000000000, 0.000000000000000000, 1.000000000000000000 ) ) ;
#147 = ADVANCED_FACE ( 'NONE', ( #286, #144 ), #255, .T. ) ;
#148 = PERSON_AND_ORGANIZATION ( #89, #283 ) ;
#149 = DIRECTION ( 'NONE',  ( 1.000000000000000000, 0.000000000000000000, 0.000000000000000000 ) ) ;
#150 = CARTESIAN_POINT ( 'NONE',  ( 0.000000000000000000, 0.000000000000000000, 503.0000000000000000 ) ) ;
#151 = APPROVAL_STATUS ( 'not_yet_approved' ) ;
#152 = DIRECTION ( 'NONE',  ( -0.000000000000000000, -0.000000000000000000, -1.000000000000000000 ) ) ;
#153 = AXIS2_PLACEMENT_3D ( 'NONE', #5, #146, #284 ) ;
#154 = DATE_AND_TIME ( #187, #78 ) ;
#155 = CARTESIAN_POINT ( 'NONE',  ( 4.000000000000000000, 4.898587196589412829E-16, 3.000000000000000000 ) ) ;
#156 = CC_DESIGN_PERSON_AND_ORGANIZATION_ASSIGNMENT ( #190, #270, ( #26 ) ) ;
#157 = DIRECTION ( 'NONE',  ( 1.000000000000000000, 0.000000000000000000, -0.000000000000000000 ) ) ;
#158 = AXIS2_PLACEMENT_3D ( 'NONE', #3, #77, #258 ) ;
#159 = DIRECTION ( 'NONE',  ( -0.000000000000000000, -0.000000000000000000, -1.000000000000000000 ) ) ;
#160 = VERTEX_POINT ( 'NONE', #52 ) ;
#161 = EDGE_CURVE ( 'NONE', #305, #164, #209, .T. ) ;
#162 = CC_DESIGN_APPROVAL ( #79, ( #87 ) ) ;
#163 = ADVANCED_FACE ( 'NONE', ( #185 ), #17, .F. ) ;
#164 = VERTEX_POINT ( 'NONE', #262 ) ;
#165 = ADVANCED_FACE ( 'NONE', ( #95 ), #55, .T. ) ;
#166 = DIRECTION ( 'NONE',  ( 0.000000000000000000, 0.000000000000000000, 1.000000000000000000 ) ) ;
#167 = CARTESIAN_POINT ( 'NONE',  ( -2.100000000000000089, 0.000000000000000000, 503.0000000000000000 ) ) ;
#168 = CARTESIAN_POINT ( 'NONE',  ( 0.000000000000000000, 0.000000000000000000, 3.000000000000000000 ) ) ;
#169 = DIRECTION ( 'NONE',  ( 0.000000000000000000, 0.000000000000000000, -1.000000000000000000 ) ) ;
#170 = CYLINDRICAL_SURFACE ( 'NONE', #218, 2.100000000000000089 ) ;
#171 = PERSON_AND_ORGANIZATION_ROLE ( 'classification_officer' ) ;
#172 = CARTESIAN_POINT ( 'NONE',  ( 0.000000000000000000, 0.000000000000000000, 3.000000000000000000 ) ) ;
#173 = AXIS2_PLACEMENT_3D ( 'NONE', #168, #232, #96 ) ;
#174 = FACE_OUTER_BOUND ( 'NONE', #49, .T. ) ;
#175 = DIRECTION ( 'NONE',  ( -0.000000000000000000, -0.000000000000000000, -1.000000000000000000 ) ) ;
#176 = CARTESIAN_POINT ( 'NONE',  ( -4.000000000000000000, 0.000000000000000000, 3.000000000000000000 ) ) ;
#177 = ORIENTED_EDGE ( 'NONE', *, *, #212, .T. ) ;
#178 = VERTEX_POINT ( 'NONE', #233 ) ;
#179 = EDGE_CURVE ( 'NONE', #202, #178, #98, .T. ) ;
#180 = ORIENTED_EDGE ( 'NONE', *, *, #259, .F. ) ;
#181 = LOCAL_TIME ( 12, 7, 2.000000000000000000, #235 ) ;
#182 = DIRECTION ( 'NONE',  ( 0.000000000000000000, 0.000000000000000000, 1.000000000000000000 ) ) ;
#183 = CARTESIAN_POINT ( 'NONE',  ( 0.000000000000000000, 0.000000000000000000, 3.199999999999980638 ) ) ;
#184 = APPROVAL_DATE_TIME ( #154, #299 ) ;
#185 = FACE_OUTER_BOUND ( 'NONE', #45, .T. ) ;
#186 = APPROVAL_PERSON_ORGANIZATION ( #273, #25, #41 ) ;
#187 = CALENDAR_DATE ( 2022, 20, 6 ) ;
#188 = DIRECTION ( 'NONE',  ( -0.000000000000000000, -0.000000000000000000, -1.000000000000000000 ) ) ;
#189 = APPLICATION_CONTEXT ( 'configuration controlled 3d designs of mechanical parts and assemblies' ) ;
#190 = PERSON_AND_ORGANIZATION ( #89, #283 ) ;
#191 = CARTESIAN_POINT ( 'NONE',  ( 0.000000000000000000, 0.000000000000000000, 503.0000000000000000 ) ) ;
#192 = CIRCLE ( 'NONE', #292, 0.2000000000000000944 ) ;
#193 = COORDINATED_UNIVERSAL_TIME_OFFSET ( 1, 0, .AHEAD. ) ;
#194 = EDGE_CURVE ( 'NONE', #178, #164, #274, .T. ) ;
#195 = SECURITY_CLASSIFICATION_LEVEL ( 'unclassified' ) ;
#196 = DIRECTION ( 'NONE',  ( -0.000000000000000000, -0.000000000000000000, -1.000000000000000000 ) ) ;
#197 = DATE_TIME_ROLE ( 'classification_date' ) ;
#198 = CARTESIAN_POINT ( 'NONE',  ( 0.000000000000000000, 0.000000000000000000, 503.0000000000000000 ) ) ;
#199 = PRODUCT_DEFINITION ( 'NEZNÁMÝ', '', #87, #140 ) ;
#200 = CYLINDRICAL_SURFACE ( 'NONE', #36, 4.000000000000000000 ) ;
#201 = CIRCLE ( 'NONE', #223, 2.100000000000000089 ) ;
#202 = VERTEX_POINT ( 'NONE', #239 ) ;
#203 = VERTEX_POINT ( 'NONE', #220 ) ;
#204 = ORIENTED_EDGE ( 'NONE', *, *, #194, .T. ) ;
#205 = DIRECTION ( 'NONE',  ( 0.000000000000000000, 0.000000000000000000, 1.000000000000000000 ) ) ;
#206 = ADVANCED_FACE ( 'NONE', ( #242 ), #243, .T. ) ;
#207 = CARTESIAN_POINT ( 'NONE',  ( 2.100000000000000089, 2.571758278209441957E-16, 503.0000000000000000 ) ) ;
#208 = PERSON_AND_ORGANIZATION ( #89, #283 ) ;
#209 = LINE ( 'NONE', #207, #131 ) ;
#210 = CIRCLE ( 'NONE', #115, 2.100000000000000089 ) ;
#211 = DATE_AND_TIME ( #33, #181 ) ;
#212 = EDGE_CURVE ( 'NONE', #281, #73, #16, .T. ) ;
#213 = DIRECTION ( 'NONE',  ( 1.000000000000000000, 0.000000000000000000, 0.000000000000000000 ) ) ;
#214 = APPROVAL_DATE_TIME ( #211, #79 ) ;
#215 = EDGE_CURVE ( 'NONE', #230, #281, #46, .T. ) ;
#216 = DIRECTION ( 'NONE',  ( 1.000000000000000000, 0.000000000000000000, 0.000000000000000000 ) ) ;
#217 = DATE_AND_TIME ( #295, #112 ) ;
#218 = AXIS2_PLACEMENT_3D ( 'NONE', #150, #175, #38 ) ;
#219 = APPROVAL_DATE_TIME ( #217, #25 ) ;
#220 = CARTESIAN_POINT ( 'NONE',  ( 4.000000000000000000, 4.898587196589412829E-16, 0.000000000000000000 ) ) ;
#221 =( NAMED_UNIT ( * ) SI_UNIT ( $, .STERADIAN. ) SOLID_ANGLE_UNIT ( ) );
#222 = ORIENTED_EDGE ( 'NONE', *, *, #215, .F. ) ;
#223 = AXIS2_PLACEMENT_3D ( 'NONE', #57, #60, #10 ) ;
#224 = EDGE_LOOP ( 'NONE', ( #222, #111, #107, #134 ) ) ;
#225 = ORIENTED_EDGE ( 'NONE', *, *, #285, .F. ) ;
#226 = ORIENTED_EDGE ( 'NONE', *, *, #43, .T. ) ;
#227 = ADVANCED_FACE ( 'NONE', ( #59 ), #200, .T. ) ;
#228 = ORIENTED_EDGE ( 'NONE', *, *, #179, .T. ) ;
#229 = CARTESIAN_POINT ( 'NONE',  ( -2.300000000000000266, 2.816687638038912549E-16, 2.999999999999990674 ) ) ;
#230 = VERTEX_POINT ( 'NONE', #155 ) ;
#231 = CC_DESIGN_SECURITY_CLASSIFICATION ( #127, ( #87 ) ) ;
#232 = DIRECTION ( 'NONE',  ( -0.000000000000000000, -0.000000000000000000, -1.000000000000000000 ) ) ;
#233 = CARTESIAN_POINT ( 'NONE',  ( -2.100000000000000089, 0.000000000000000000, 3.199999999999980638 ) ) ;
#234 = ADVANCED_FACE ( 'NONE', ( #174 ), #125, .F. ) ;
#235 = COORDINATED_UNIVERSAL_TIME_OFFSET ( 1, 0, .AHEAD. ) ;
#236 = CARTESIAN_POINT ( 'NONE',  ( 0.000000000000000000, 0.000000000000000000, 3.199999999999980638 ) ) ;
#237 = VECTOR ( 'NONE', #188, 1000.000000000000000 ) ;
#238 = PERSON_AND_ORGANIZATION ( #89, #283 ) ;
#239 = CARTESIAN_POINT ( 'NONE',  ( -2.100000000000000089, 0.000000000000000000, 503.0000000000000000 ) ) ;
#240 = PERSON_AND_ORGANIZATION ( #89, #283 ) ;
#241 = CARTESIAN_POINT ( 'NONE',  ( 2.100000000000000089, 2.571758278209441957E-16, 503.0000000000000000 ) ) ;
#242 = FACE_OUTER_BOUND ( 'NONE', #278, .T. ) ;
#243 = CYLINDRICAL_SURFACE ( 'NONE', #293, 2.100000000000000089 ) ;
#244 = CC_DESIGN_PERSON_AND_ORGANIZATION_ASSIGNMENT ( #148, #113, ( #199 ) ) ;
#245 = DIRECTION ( 'NONE',  ( 1.000000000000000000, 0.000000000000000000, 0.000000000000000000 ) ) ;
#246 = CIRCLE ( 'NONE', #256, 2.100000000000000089 ) ;
#247 = ORIENTED_EDGE ( 'NONE', *, *, #64, .F. ) ;
#248 = DIRECTION ( 'NONE',  ( 1.000000000000000000, 0.000000000000000000, 0.000000000000000000 ) ) ;
#249 = EDGE_LOOP ( 'NONE', ( #76, #180, #177, #133 ) ) ;
#250 = APPROVAL_PERSON_ORGANIZATION ( #240, #79, #120 ) ;
#251 = EDGE_CURVE ( 'NONE', #230, #203, #42, .T. ) ;
#252 = ORIENTED_EDGE ( 'NONE', *, *, #64, .T. ) ;
#253 = ORIENTED_EDGE ( 'NONE', *, *, #194, .F. ) ;
#254 = CIRCLE ( 'NONE', #90, 4.000000000000000000 ) ;
#255 = PLANE ( 'NONE',  #39 ) ;
#256 = AXIS2_PLACEMENT_3D ( 'NONE', #183, #182, #35 ) ;
#257 = CARTESIAN_POINT ( 'NONE',  ( 0.000000000000000000, 0.000000000000000000, 3.199999999999980638 ) ) ;
#258 = DIRECTION ( 'NONE',  ( -1.000000000000000000, 0.000000000000000000, 0.000000000000000000 ) ) ;
#259 = EDGE_CURVE ( 'NONE', #281, #230, #94, .T. ) ;
#260 = AXIS2_PLACEMENT_3D ( 'NONE', #266, #30, #82 ) ;
#261 = MECHANICAL_CONTEXT ( 'NONE', #81, 'mechanical' ) ;
#262 = CARTESIAN_POINT ( 'NONE',  ( 2.100000000000000089, 2.571758278209441957E-16, 3.199999999999980638 ) ) ;
#263 = CARTESIAN_POINT ( 'NONE',  ( -4.000000000000000000, 0.000000000000000000, 0.000000000000000000 ) ) ;
#264 = CALENDAR_DATE ( 2022, 20, 6 ) ;
#265 =( GEOMETRIC_REPRESENTATION_CONTEXT ( 3 ) GLOBAL_UNCERTAINTY_ASSIGNED_CONTEXT ( ( #304 ) ) GLOBAL_UNIT_ASSIGNED_CONTEXT ( ( #83, #269, #221 ) ) REPRESENTATION_CONTEXT ( 'NONE', 'WORKASPACE' ) );
#266 = CARTESIAN_POINT ( 'NONE',  ( 0.000000000000000000, 0.000000000000000000, 0.000000000000000000 ) ) ;
#267 = DIRECTION ( 'NONE',  ( -1.000000000000000000, 0.000000000000000000, 0.000000000000000000 ) ) ;
#268 = EDGE_CURVE ( 'NONE', #73, #203, #254, .T. ) ;
#269 =( NAMED_UNIT ( * ) PLANE_ANGLE_UNIT ( ) SI_UNIT ( $, .RADIAN. ) );
#270 = PERSON_AND_ORGANIZATION_ROLE ( 'design_owner' ) ;
#271 = FACE_OUTER_BOUND ( 'NONE', #109, .T. ) ;
#272 = DIRECTION ( 'NONE',  ( 0.000000000000000000, 0.000000000000000000, 1.000000000000000000 ) ) ;
#273 = PERSON_AND_ORGANIZATION ( #89, #283 ) ;
#274 = CIRCLE ( 'NONE', #136, 2.100000000000000089 ) ;
#275 = CARTESIAN_POINT ( 'NONE',  ( 0.000000000000000000, 0.000000000000000000, 3.000000000000000000 ) ) ;
#276 = EDGE_CURVE ( 'NONE', #53, #160, #13, .T. ) ;
#277 = COORDINATED_UNIVERSAL_TIME_OFFSET ( 1, 0, .AHEAD. ) ;
#278 = EDGE_LOOP ( 'NONE', ( #69, #225, #228, #204 ) ) ;
#279 = AXIS2_PLACEMENT_3D ( 'NONE', #12, #272, #157 ) ;
#280 = ORIENTED_EDGE ( 'NONE', *, *, #92, .T. ) ;
#281 = VERTEX_POINT ( 'NONE', #47 ) ;
#282 = EDGE_LOOP ( 'NONE', ( #141, #135 ) ) ;
#283 = ORGANIZATION ( 'NEURÈENÝ', 'NEURÈENÝ', '' ) ;
#284 = DIRECTION ( 'NONE',  ( 1.000000000000000000, 0.000000000000000000, -0.000000000000000000 ) ) ;
#285 = EDGE_CURVE ( 'NONE', #202, #305, #201, .T. ) ;
#286 = FACE_BOUND ( 'NONE', #138, .T. ) ;
#287 = PERSON_AND_ORGANIZATION ( #89, #283 ) ;
#288 = ORIENTED_EDGE ( 'NONE', *, *, #43, .F. ) ;
#289 = DIRECTION ( 'NONE',  ( 0.000000000000000000, 0.000000000000000000, 1.000000000000000000 ) ) ;
#290 = ADVANCED_FACE ( 'NONE', ( #271 ), #170, .T. ) ;
#291 = DIRECTION ( 'NONE',  ( 0.000000000000000000, -1.000000000000000000, 0.000000000000000000 ) ) ;
#292 = AXIS2_PLACEMENT_3D ( 'NONE', #54, #291, #169 ) ;
#293 = AXIS2_PLACEMENT_3D ( 'NONE', #198, #196, #126 ) ;
#294 = COORDINATED_UNIVERSAL_TIME_OFFSET ( 1, 0, .AHEAD. ) ;
#295 = CALENDAR_DATE ( 2022, 20, 6 ) ;
#296 = CIRCLE ( 'NONE', #145, 0.2000000000000000944 ) ;
#297 = DIRECTION ( 'NONE',  ( 1.000000000000000000, 0.000000000000000000, 0.000000000000000000 ) ) ;
#298 = APPROVAL_PERSON_ORGANIZATION ( #287, #299, #102 ) ;
#299 = APPROVAL ( #100, 'NEURÈENÝ' ) ;
#300 = AXIS2_PLACEMENT_3D ( 'NONE', #58, #2, #149 ) ;
#301 = APPROVAL_STATUS ( 'not_yet_approved' ) ;
#302 = ORIENTED_EDGE ( 'NONE', *, *, #22, .T. ) ;
#303 = LOCAL_TIME ( 12, 7, 2.000000000000000000, #294 ) ;
#304 = UNCERTAINTY_MEASURE_WITH_UNIT (LENGTH_MEASURE( 1.000000000000000082E-05 ), #83, 'distance_accuracy_value', 'NONE');
#305 = VERTEX_POINT ( 'NONE', #241 ) ;
#306 = ORIENTED_EDGE ( 'NONE', *, *, #137, .F. ) ;
#307 = DIRECTION ( 'NONE',  ( 0.000000000000000000, 0.000000000000000000, 1.000000000000000000 ) ) ;
ENDSEC;
END-ISO-10303-21;
