ISO-10303-21;
HEADER;
FILE_DESCRIPTION (( 'STEP AP203' ),
    '1' );
FILE_NAME ('8351.STEP',
    '2022-06-20T10:03:20',
    ( '' ),
    ( '' ),
    'SwSTEP 2.0',
    'SolidWorks 2019',
    '' );
FILE_SCHEMA (( 'CONFIG_CONTROL_DESIGN' ));
ENDSEC;

DATA;
#1 = DIRECTION ( 'NONE',  ( 1.000000000000000000, 0.000000000000000000, 0.000000000000000000 ) ) ;
#2 = CARTESIAN_POINT ( 'NONE',  ( 0.000000000000000000, 0.000000000000000000, 3.000000000000000000 ) ) ;
#3 = AXIS2_PLACEMENT_3D ( 'NONE', #135, #160, #232 ) ;
#4 = VERTEX_POINT ( 'NONE', #26 ) ;
#5 = CC_DESIGN_APPROVAL ( #239, ( #61 ) ) ;
#6 = CIRCLE ( 'NONE', #249, 2.500000000000000000 ) ;
#7 = EDGE_LOOP ( 'NONE', ( #83, #296, #27, #167 ) ) ;
#8 = LINE ( 'NONE', #90, #270 ) ;
#9 = AXIS2_PLACEMENT_3D ( 'NONE', #295, #293, #238 ) ;
#10 = APPROVAL_STATUS ( 'not_yet_approved' ) ;
#11 = CC_DESIGN_PERSON_AND_ORGANIZATION_ASSIGNMENT ( #80, #142, ( #274 ) ) ;
#12 = PLANE ( 'NONE',  #77 ) ;
#13 = CARTESIAN_POINT ( 'NONE',  ( 0.000000000000000000, 0.000000000000000000, 318.0000000000000000 ) ) ;
#14 = DIRECTION ( 'NONE',  ( 1.000000000000000000, 0.000000000000000000, 0.000000000000000000 ) ) ;
#15 = PERSON_AND_ORGANIZATION ( #150, #48 ) ;
#16 = EDGE_CURVE ( 'NONE', #70, #81, #139, .T. ) ;
#17 = CARTESIAN_POINT ( 'NONE',  ( -2.500000000000000000, 0.000000000000000000, 3.199999999999980638 ) ) ;
#18 = ORIENTED_EDGE ( 'NONE', *, *, #137, .T. ) ;
#19 = EDGE_LOOP ( 'NONE', ( #99, #86, #18, #306 ) ) ;
#20 = ADVANCED_FACE ( 'NONE', ( #248 ), #50, .T. ) ;
#21 = DIRECTION ( 'NONE',  ( 0.000000000000000000, 0.000000000000000000, 1.000000000000000000 ) ) ;
#22 = PERSON_AND_ORGANIZATION ( #150, #48 ) ;
#23 = DIRECTION ( 'NONE',  ( 0.000000000000000000, 0.000000000000000000, 1.000000000000000000 ) ) ;
#24 = PRODUCT_DEFINITION_FORMATION_WITH_SPECIFIED_SOURCE ( 'LIBOVOLNÝ', '', #152, .NOT_KNOWN. ) ;
#25 = DIRECTION ( 'NONE',  ( 1.224646799147353207E-16, 1.000000000000000000, -0.000000000000000000 ) ) ;
#26 = CARTESIAN_POINT ( 'NONE',  ( -5.000000000000000000, 0.000000000000000000, 3.000000000000000000 ) ) ;
#27 = ORIENTED_EDGE ( 'NONE', *, *, #159, .F. ) ;
#28 = APPROVAL_DATE_TIME ( #136, #205 ) ;
#29 = CARTESIAN_POINT ( 'NONE',  ( 0.000000000000000000, 0.000000000000000000, 318.0000000000000000 ) ) ;
#30 = CARTESIAN_POINT ( 'NONE',  ( -5.000000000000000000, 0.000000000000000000, 0.000000000000000000 ) ) ;
#31 = CC_DESIGN_DATE_AND_TIME_ASSIGNMENT ( #121, #213, ( #274 ) ) ;
#32 = DIRECTION ( 'NONE',  ( 0.000000000000000000, -1.000000000000000000, 0.000000000000000000 ) ) ;
#33 =( LENGTH_UNIT ( ) NAMED_UNIT ( * ) SI_UNIT ( .MILLI., .METRE. ) );
#34 = DATE_AND_TIME ( #140, #143 ) ;
#35 = APPLICATION_PROTOCOL_DEFINITION ( 'international standard', 'config_control_design', 1994, #283 ) ;
#36 = ORIENTED_EDGE ( 'NONE', *, *, #287, .T. ) ;
#37 = APPROVAL_STATUS ( 'not_yet_approved' ) ;
#38 = ADVANCED_FACE ( 'NONE', ( #133, #141 ), #12, .T. ) ;
#39 = PLANE ( 'NONE',  #3 ) ;
#40 = ORIENTED_EDGE ( 'NONE', *, *, #159, .T. ) ;
#41 = AXIS2_PLACEMENT_3D ( 'NONE', #13, #75, #164 ) ;
#42 = ADVANCED_BREP_SHAPE_REPRESENTATION ( '8351', ( #216, #151 ), #290 ) ;
#43 = CARTESIAN_POINT ( 'NONE',  ( -2.500000000000000000, 0.000000000000000000, 318.0000000000000000 ) ) ;
#44 = DIRECTION ( 'NONE',  ( -0.000000000000000000, -0.000000000000000000, -1.000000000000000000 ) ) ;
#45 = ORIENTED_EDGE ( 'NONE', *, *, #277, .F. ) ;
#46 = CARTESIAN_POINT ( 'NONE',  ( 0.000000000000000000, 0.000000000000000000, 3.000000000000000000 ) ) ;
#47 = EDGE_CURVE ( 'NONE', #206, #271, #221, .T. ) ;
#48 = ORGANIZATION ( 'NEURÈENÝ', 'NEURÈENÝ', '' ) ;
#49 = VERTEX_POINT ( 'NONE', #166 ) ;
#50 = CYLINDRICAL_SURFACE ( 'NONE', #178, 5.000000000000000000 ) ;
#51 = CARTESIAN_POINT ( 'NONE',  ( 2.700000000000000178, 0.000000000000000000, 2.999999999999990674 ) ) ;
#52 = AXIS2_PLACEMENT_3D ( 'NONE', #226, #25, #203 ) ;
#53 = ORIENTED_EDGE ( 'NONE', *, *, #192, .T. ) ;
#54 = APPROVAL_ROLE ( '' ) ;
#55 = EDGE_LOOP ( 'NONE', ( #53, #36 ) ) ;
#56 = AXIS2_PLACEMENT_3D ( 'NONE', #107, #168, #244 ) ;
#57 = ORIENTED_EDGE ( 'NONE', *, *, #145, .F. ) ;
#58 = CALENDAR_DATE ( 2022, 20, 6 ) ;
#59 = DIRECTION ( 'NONE',  ( -1.000000000000000000, 0.000000000000000000, 0.000000000000000000 ) ) ;
#60 = CIRCLE ( 'NONE', #202, 5.000000000000000000 ) ;
#61 = SECURITY_CLASSIFICATION ( '', '', #197 ) ;
#62 = DIRECTION ( 'NONE',  ( 1.000000000000000000, 0.000000000000000000, -0.000000000000000000 ) ) ;
#63 = ORIENTED_EDGE ( 'NONE', *, *, #192, .F. ) ;
#64 = CARTESIAN_POINT ( 'NONE',  ( 0.000000000000000000, 0.000000000000000000, 318.0000000000000000 ) ) ;
#65 = CC_DESIGN_DATE_AND_TIME_ASSIGNMENT ( #278, #82, ( #61 ) ) ;
#66 = EDGE_CURVE ( 'NONE', #70, #271, #109, .T. ) ;
#67 = ORIENTED_EDGE ( 'NONE', *, *, #47, .F. ) ;
#68 = DIRECTION ( 'NONE',  ( 0.000000000000000000, 0.000000000000000000, 1.000000000000000000 ) ) ;
#69 = CIRCLE ( 'NONE', #297, 2.500000000000000000 ) ;
#70 = VERTEX_POINT ( 'NONE', #214 ) ;
#71 = AXIS2_PLACEMENT_3D ( 'NONE', #29, #92, #265 ) ;
#72 = DIRECTION ( 'NONE',  ( -0.000000000000000000, -0.000000000000000000, -1.000000000000000000 ) ) ;
#73 = CIRCLE ( 'NONE', #196, 2.700000000000000178 ) ;
#74 = DIRECTION ( 'NONE',  ( 1.000000000000000000, 0.000000000000000000, 0.000000000000000000 ) ) ;
#75 = DIRECTION ( 'NONE',  ( 0.000000000000000000, 0.000000000000000000, 1.000000000000000000 ) ) ;
#76 = CC_DESIGN_APPROVAL ( #161, ( #274 ) ) ;
#77 = AXIS2_PLACEMENT_3D ( 'NONE', #272, #147, #269 ) ;
#78 = CARTESIAN_POINT ( 'NONE',  ( 0.000000000000000000, 0.000000000000000000, 0.000000000000000000 ) ) ;
#79 = EDGE_LOOP ( 'NONE', ( #148, #63, #229, #129 ) ) ;
#80 = PERSON_AND_ORGANIZATION ( #150, #48 ) ;
#81 = VERTEX_POINT ( 'NONE', #17 ) ;
#82 = DATE_TIME_ROLE ( 'classification_date' ) ;
#83 = ORIENTED_EDGE ( 'NONE', *, *, #110, .F. ) ;
#84 = CARTESIAN_POINT ( 'NONE',  ( 0.000000000000000000, 0.000000000000000000, 318.0000000000000000 ) ) ;
#85 = APPROVAL_ROLE ( '' ) ;
#86 = ORIENTED_EDGE ( 'NONE', *, *, #145, .T. ) ;
#87 = DIRECTION ( 'NONE',  ( -0.000000000000000000, -0.000000000000000000, -1.000000000000000000 ) ) ;
#88 = DIRECTION ( 'NONE',  ( -0.000000000000000000, -0.000000000000000000, -1.000000000000000000 ) ) ;
#89 = EDGE_LOOP ( 'NONE', ( #45, #122 ) ) ;
#90 = CARTESIAN_POINT ( 'NONE',  ( -5.000000000000000000, 0.000000000000000000, 3.000000000000000000 ) ) ;
#91 = ADVANCED_FACE ( 'NONE', ( #190 ), #95, .T. ) ;
#92 = DIRECTION ( 'NONE',  ( -0.000000000000000000, -0.000000000000000000, -1.000000000000000000 ) ) ;
#93 = EDGE_CURVE ( 'NONE', #228, #70, #234, .T. ) ;
#94 = PERSON_AND_ORGANIZATION ( #150, #48 ) ;
#95 = CYLINDRICAL_SURFACE ( 'NONE', #71, 2.500000000000000000 ) ;
#96 = AXIS2_PLACEMENT_3D ( 'NONE', #108, #88, #258 ) ;
#97 =( NAMED_UNIT ( * ) SI_UNIT ( $, .STERADIAN. ) SOLID_ANGLE_UNIT ( ) );
#98 = DIRECTION ( 'NONE',  ( 1.000000000000000000, 0.000000000000000000, 0.000000000000000000 ) ) ;
#99 = ORIENTED_EDGE ( 'NONE', *, *, #298, .F. ) ;
#100 = DIRECTION ( 'NONE',  ( 0.000000000000000000, 0.000000000000000000, 1.000000000000000000 ) ) ;
#101 = LINE ( 'NONE', #43, #103 ) ;
#102 = CC_DESIGN_PERSON_AND_ORGANIZATION_ASSIGNMENT ( #126, #304, ( #24 ) ) ;
#103 = VECTOR ( 'NONE', #222, 1000.000000000000000 ) ;
#104 = APPROVAL_PERSON_ORGANIZATION ( #15, #205, #54 ) ;
#105 = FACE_OUTER_BOUND ( 'NONE', #55, .T. ) ;
#106 = ADVANCED_FACE ( 'NONE', ( #105 ), #174, .T. ) ;
#107 = CARTESIAN_POINT ( 'NONE',  ( 0.000000000000000000, 0.000000000000000000, 3.199999999999980638 ) ) ;
#108 = CARTESIAN_POINT ( 'NONE',  ( 0.000000000000000000, 0.000000000000000000, 3.000000000000000000 ) ) ;
#109 = CIRCLE ( 'NONE', #256, 0.2000000000000000944 ) ;
#110 = EDGE_CURVE ( 'NONE', #81, #70, #6, .T. ) ;
#111 = FACE_OUTER_BOUND ( 'NONE', #215, .T. ) ;
#112 = CIRCLE ( 'NONE', #52, 0.2000000000000000944 ) ;
#113 = DIRECTION ( 'NONE',  ( 0.000000000000000000, 0.000000000000000000, 1.000000000000000000 ) ) ;
#114 = AXIS2_PLACEMENT_3D ( 'NONE', #153, #68, #220 ) ;
#115 = CARTESIAN_POINT ( 'NONE',  ( 2.700000000000000178, 0.000000000000000000, 3.199999999999980638 ) ) ;
#116 = AXIS2_PLACEMENT_3D ( 'NONE', #154, #100, #149 ) ;
#117 = DIRECTION ( 'NONE',  ( -0.000000000000000000, -0.000000000000000000, -1.000000000000000000 ) ) ;
#118 = PERSON_AND_ORGANIZATION_ROLE ( 'design_owner' ) ;
#119 = CC_DESIGN_APPROVAL ( #205, ( #24 ) ) ;
#120 = CLOSED_SHELL ( 'NONE', ( #285, #157, #20, #240, #38, #235, #91, #106, #132 ) ) ;
#121 = DATE_AND_TIME ( #165, #288 ) ;
#122 = ORIENTED_EDGE ( 'NONE', *, *, #137, .F. ) ;
#123 = CIRCLE ( 'NONE', #224, 5.000000000000000000 ) ;
#124 = COORDINATED_UNIVERSAL_TIME_OFFSET ( 1, 0, .AHEAD. ) ;
#125 = LOCAL_TIME ( 12, 3, 20.00000000000000000, #124 ) ;
#126 = PERSON_AND_ORGANIZATION ( #150, #48 ) ;
#127 = CARTESIAN_POINT ( 'NONE',  ( 0.000000000000000000, 0.000000000000000000, 3.199999999999980638 ) ) ;
#128 = DIRECTION ( 'NONE',  ( 0.000000000000000000, 0.000000000000000000, 1.000000000000000000 ) ) ;
#129 = ORIENTED_EDGE ( 'NONE', *, *, #110, .T. ) ;
#130 = CARTESIAN_POINT ( 'NONE',  ( -2.700000000000000178, 3.306546357697853733E-16, 2.999999999999990674 ) ) ;
#131 = ORIENTED_EDGE ( 'NONE', *, *, #277, .T. ) ;
#132 = ADVANCED_FACE ( 'NONE', ( #307 ), #183, .F. ) ;
#133 = FACE_BOUND ( 'NONE', #158, .T. ) ;
#134 = APPROVAL_PERSON_ORGANIZATION ( #275, #239, #85 ) ;
#135 = CARTESIAN_POINT ( 'NONE',  ( 0.000000000000000000, 0.000000000000000000, 0.000000000000000000 ) ) ;
#136 = DATE_AND_TIME ( #189, #292 ) ;
#137 = EDGE_CURVE ( 'NONE', #273, #301, #227, .T. ) ;
#138 = TOROIDAL_SURFACE ( 'NONE', #172, 2.700000000000000178, 0.2000000000000000111 ) ;
#139 = CIRCLE ( 'NONE', #56, 2.500000000000000000 ) ;
#140 = CALENDAR_DATE ( 2022, 20, 6 ) ;
#141 = FACE_OUTER_BOUND ( 'NONE', #198, .T. ) ;
#142 = PERSON_AND_ORGANIZATION_ROLE ( 'creator' ) ;
#143 = LOCAL_TIME ( 12, 3, 20.00000000000000000, #267 ) ;
#144 = DIRECTION ( 'NONE',  ( 0.000000000000000000, 0.000000000000000000, -1.000000000000000000 ) ) ;
#145 = EDGE_CURVE ( 'NONE', #49, #273, #247, .T. ) ;
#146 = DATE_AND_TIME ( #58, #182 ) ;
#147 = DIRECTION ( 'NONE',  ( 0.000000000000000000, 0.000000000000000000, 1.000000000000000000 ) ) ;
#148 = ORIENTED_EDGE ( 'NONE', *, *, #93, .F. ) ;
#149 = DIRECTION ( 'NONE',  ( 1.000000000000000000, 0.000000000000000000, 0.000000000000000000 ) ) ;
#150 = PERSON ( 'NEURÈENÝ', 'NEURÈENÝ', 'NEURÈENÝ', ('NEURÈENÝ'), ('NEURÈENÝ'), ('NEURÈENÝ') ) ;
#151 = AXIS2_PLACEMENT_3D ( 'NONE', #78, #242, #98 ) ;
#152 = PRODUCT ( '8351', '8351', '', ( #188 ) ) ;
#153 = CARTESIAN_POINT ( 'NONE',  ( 0.000000000000000000, 0.000000000000000000, 3.199999999999980638 ) ) ;
#154 = CARTESIAN_POINT ( 'NONE',  ( 0.000000000000000000, 0.000000000000000000, 0.000000000000000000 ) ) ;
#155 = ORIENTED_EDGE ( 'NONE', *, *, #264, .T. ) ;
#156 = CIRCLE ( 'NONE', #282, 5.000000000000000000 ) ;
#157 = ADVANCED_FACE ( 'NONE', ( #193 ), #251, .T. ) ;
#158 = EDGE_LOOP ( 'NONE', ( #40, #191 ) ) ;
#159 = EDGE_CURVE ( 'NONE', #271, #206, #73, .T. ) ;
#160 = DIRECTION ( 'NONE',  ( 0.000000000000000000, 0.000000000000000000, 1.000000000000000000 ) ) ;
#161 = APPROVAL ( #236, 'NEURÈENÝ' ) ;
#162 = VECTOR ( 'NONE', #246, 1000.000000000000000 ) ;
#163 =( NAMED_UNIT ( * ) PLANE_ANGLE_UNIT ( ) SI_UNIT ( $, .RADIAN. ) );
#164 = DIRECTION ( 'NONE',  ( 1.000000000000000000, 0.000000000000000000, 0.000000000000000000 ) ) ;
#165 = CALENDAR_DATE ( 2022, 20, 6 ) ;
#166 = CARTESIAN_POINT ( 'NONE',  ( 5.000000000000000000, 6.123233995736766282E-16, 3.000000000000000000 ) ) ;
#167 = ORIENTED_EDGE ( 'NONE', *, *, #66, .F. ) ;
#168 = DIRECTION ( 'NONE',  ( 0.000000000000000000, 0.000000000000000000, 1.000000000000000000 ) ) ;
#169 = ORIENTED_EDGE ( 'NONE', *, *, #16, .T. ) ;
#170 = CALENDAR_DATE ( 2022, 20, 6 ) ;
#171 = DIRECTION ( 'NONE',  ( 1.000000000000000000, 0.000000000000000000, 0.000000000000000000 ) ) ;
#172 = AXIS2_PLACEMENT_3D ( 'NONE', #208, #113, #14 ) ;
#173 = DIRECTION ( 'NONE',  ( 0.000000000000000000, 0.000000000000000000, 1.000000000000000000 ) ) ;
#174 = PLANE ( 'NONE',  #266 ) ;
#175 = CARTESIAN_POINT ( 'NONE',  ( 2.500000000000000000, 3.061616997868383141E-16, 318.0000000000000000 ) ) ;
#176 = FACE_OUTER_BOUND ( 'NONE', #7, .T. ) ;
#177 = EDGE_CURVE ( 'NONE', #259, #81, #101, .T. ) ;
#178 = AXIS2_PLACEMENT_3D ( 'NONE', #2, #87, #204 ) ;
#179 = ORIENTED_EDGE ( 'NONE', *, *, #93, .T. ) ;
#180 = CYLINDRICAL_SURFACE ( 'NONE', #96, 5.000000000000000000 ) ;
#181 = ORIENTED_EDGE ( 'NONE', *, *, #177, .F. ) ;
#182 = LOCAL_TIME ( 12, 3, 20.00000000000000000, #276 ) ;
#183 = TOROIDAL_SURFACE ( 'NONE', #114, 2.700000000000000178, 0.2000000000000000111 ) ;
#184 = DIRECTION ( 'NONE',  ( 0.000000000000000000, 0.000000000000000000, 1.000000000000000000 ) ) ;
#185 = PERSON_AND_ORGANIZATION ( #150, #48 ) ;
#186 = EDGE_CURVE ( 'NONE', #4, #49, #123, .T. ) ;
#187 = APPLICATION_PROTOCOL_DEFINITION ( 'international standard', 'config_control_design', 1994, #262 ) ;
#188 = MECHANICAL_CONTEXT ( 'NONE', #283, 'mechanical' ) ;
#189 = CALENDAR_DATE ( 2022, 20, 6 ) ;
#190 = FACE_OUTER_BOUND ( 'NONE', #79, .T. ) ;
#191 = ORIENTED_EDGE ( 'NONE', *, *, #47, .T. ) ;
#192 = EDGE_CURVE ( 'NONE', #259, #228, #69, .T. ) ;
#193 = FACE_OUTER_BOUND ( 'NONE', #261, .T. ) ;
#194 = VECTOR ( 'NONE', #117, 1000.000000000000000 ) ;
#195 = CARTESIAN_POINT ( 'NONE',  ( 0.000000000000000000, 0.000000000000000000, 318.0000000000000000 ) ) ;
#196 = AXIS2_PLACEMENT_3D ( 'NONE', #303, #44, #243 ) ;
#197 = SECURITY_CLASSIFICATION_LEVEL ( 'unclassified' ) ;
#198 = EDGE_LOOP ( 'NONE', ( #199, #218 ) ) ;
#199 = ORIENTED_EDGE ( 'NONE', *, *, #186, .T. ) ;
#200 = CARTESIAN_POINT ( 'NONE',  ( -2.500000000000000000, 0.000000000000000000, 318.0000000000000000 ) ) ;
#201 = ORIENTED_EDGE ( 'NONE', *, *, #253, .F. ) ;
#202 = AXIS2_PLACEMENT_3D ( 'NONE', #209, #237, #74 ) ;
#203 = DIRECTION ( 'NONE',  ( -1.000000000000000000, 1.224646799147353207E-16, 0.000000000000000000 ) ) ;
#204 = DIRECTION ( 'NONE',  ( -1.000000000000000000, 0.000000000000000000, 0.000000000000000000 ) ) ;
#205 = APPROVAL ( #10, 'NEURÈENÝ' ) ;
#206 = VERTEX_POINT ( 'NONE', #130 ) ;
#207 = COORDINATED_UNIVERSAL_TIME_OFFSET ( 1, 0, .AHEAD. ) ;
#208 = CARTESIAN_POINT ( 'NONE',  ( 0.000000000000000000, 0.000000000000000000, 3.199999999999980638 ) ) ;
#209 = CARTESIAN_POINT ( 'NONE',  ( 0.000000000000000000, 0.000000000000000000, 3.000000000000000000 ) ) ;
#210 = CIRCLE ( 'NONE', #41, 2.500000000000000000 ) ;
#211 = CC_DESIGN_PERSON_AND_ORGANIZATION_ASSIGNMENT ( #185, #289, ( #24 ) ) ;
#212 = APPROVAL_DATE_TIME ( #34, #161 ) ;
#213 = DATE_TIME_ROLE ( 'creation_date' ) ;
#214 = CARTESIAN_POINT ( 'NONE',  ( 2.500000000000000000, 3.061616997868383141E-16, 3.199999999999980638 ) ) ;
#215 = EDGE_LOOP ( 'NONE', ( #57, #245, #155, #131 ) ) ;
#216 = MANIFOLD_SOLID_BREP ( 'Zaoblit1', #120 ) ;
#217 = CARTESIAN_POINT ( 'NONE',  ( 5.000000000000000000, 6.123233995736766282E-16, 3.000000000000000000 ) ) ;
#218 = ORIENTED_EDGE ( 'NONE', *, *, #298, .T. ) ;
#219 = APPROVAL_DATE_TIME ( #146, #239 ) ;
#220 = DIRECTION ( 'NONE',  ( 1.000000000000000000, 0.000000000000000000, 0.000000000000000000 ) ) ;
#221 = CIRCLE ( 'NONE', #9, 2.700000000000000178 ) ;
#222 = DIRECTION ( 'NONE',  ( -0.000000000000000000, -0.000000000000000000, -1.000000000000000000 ) ) ;
#223 = DIRECTION ( 'NONE',  ( 1.000000000000000000, 0.000000000000000000, 0.000000000000000000 ) ) ;
#224 = AXIS2_PLACEMENT_3D ( 'NONE', #46, #173, #305 ) ;
#225 = DIRECTION ( 'NONE',  ( -0.000000000000000000, -0.000000000000000000, -1.000000000000000000 ) ) ;
#226 = CARTESIAN_POINT ( 'NONE',  ( -2.700000000000000178, 3.306546357697853733E-16, 3.199999999999980638 ) ) ;
#227 = CIRCLE ( 'NONE', #116, 5.000000000000000000 ) ;
#228 = VERTEX_POINT ( 'NONE', #175 ) ;
#229 = ORIENTED_EDGE ( 'NONE', *, *, #177, .T. ) ;
#230 = AXIS2_PLACEMENT_3D ( 'NONE', #195, #225, #59 ) ;
#231 = CC_DESIGN_SECURITY_CLASSIFICATION ( #61, ( #24 ) ) ;
#232 = DIRECTION ( 'NONE',  ( 1.000000000000000000, 0.000000000000000000, -0.000000000000000000 ) ) ;
#233 = COORDINATED_UNIVERSAL_TIME_OFFSET ( 1, 0, .AHEAD. ) ;
#234 = LINE ( 'NONE', #291, #194 ) ;
#235 = ADVANCED_FACE ( 'NONE', ( #281 ), #39, .F. ) ;
#236 = APPROVAL_STATUS ( 'not_yet_approved' ) ;
#237 = DIRECTION ( 'NONE',  ( 0.000000000000000000, 0.000000000000000000, 1.000000000000000000 ) ) ;
#238 = DIRECTION ( 'NONE',  ( 1.000000000000000000, 0.000000000000000000, 0.000000000000000000 ) ) ;
#239 = APPROVAL ( #37, 'NEURÈENÝ' ) ;
#240 = ADVANCED_FACE ( 'NONE', ( #111 ), #180, .T. ) ;
#241 = APPROVAL_PERSON_ORGANIZATION ( #263, #161, #294 ) ;
#242 = DIRECTION ( 'NONE',  ( 0.000000000000000000, 0.000000000000000000, 1.000000000000000000 ) ) ;
#243 = DIRECTION ( 'NONE',  ( 1.000000000000000000, 0.000000000000000000, 0.000000000000000000 ) ) ;
#244 = DIRECTION ( 'NONE',  ( 1.000000000000000000, 0.000000000000000000, 0.000000000000000000 ) ) ;
#245 = ORIENTED_EDGE ( 'NONE', *, *, #186, .F. ) ;
#246 = DIRECTION ( 'NONE',  ( -0.000000000000000000, -0.000000000000000000, -1.000000000000000000 ) ) ;
#247 = LINE ( 'NONE', #217, #162 ) ;
#248 = FACE_OUTER_BOUND ( 'NONE', #19, .T. ) ;
#249 = AXIS2_PLACEMENT_3D ( 'NONE', #127, #21, #171 ) ;
#250 = SHAPE_DEFINITION_REPRESENTATION ( #302, #42 ) ;
#251 = CYLINDRICAL_SURFACE ( 'NONE', #230, 2.500000000000000000 ) ;
#252 = CC_DESIGN_PERSON_AND_ORGANIZATION_ASSIGNMENT ( #94, #118, ( #152 ) ) ;
#253 = EDGE_CURVE ( 'NONE', #81, #206, #112, .T. ) ;
#254 = CARTESIAN_POINT ( 'NONE',  ( 5.000000000000000000, 6.123233995736766282E-16, 0.000000000000000000 ) ) ;
#255 = UNCERTAINTY_MEASURE_WITH_UNIT (LENGTH_MEASURE( 1.000000000000000082E-05 ), #33, 'distance_accuracy_value', 'NONE');
#256 = AXIS2_PLACEMENT_3D ( 'NONE', #115, #32, #144 ) ;
#257 = ORIENTED_EDGE ( 'NONE', *, *, #66, .T. ) ;
#258 = DIRECTION ( 'NONE',  ( -1.000000000000000000, 0.000000000000000000, 0.000000000000000000 ) ) ;
#259 = VERTEX_POINT ( 'NONE', #200 ) ;
#260 = PRODUCT_RELATED_PRODUCT_CATEGORY ( 'detail', '', ( #152 ) ) ;
#261 = EDGE_LOOP ( 'NONE', ( #280, #179, #169, #181 ) ) ;
#262 = APPLICATION_CONTEXT ( 'configuration controlled 3d designs of mechanical parts and assemblies' ) ;
#263 = PERSON_AND_ORGANIZATION ( #150, #48 ) ;
#264 = EDGE_CURVE ( 'NONE', #4, #301, #8, .T. ) ;
#265 = DIRECTION ( 'NONE',  ( -1.000000000000000000, 0.000000000000000000, 0.000000000000000000 ) ) ;
#266 = AXIS2_PLACEMENT_3D ( 'NONE', #64, #23, #62 ) ;
#267 = COORDINATED_UNIVERSAL_TIME_OFFSET ( 1, 0, .AHEAD. ) ;
#268 = ORIENTED_EDGE ( 'NONE', *, *, #16, .F. ) ;
#269 = DIRECTION ( 'NONE',  ( 1.000000000000000000, 0.000000000000000000, -0.000000000000000000 ) ) ;
#270 = VECTOR ( 'NONE', #72, 1000.000000000000000 ) ;
#271 = VERTEX_POINT ( 'NONE', #51 ) ;
#272 = CARTESIAN_POINT ( 'NONE',  ( 0.000000000000000000, 0.000000000000000000, 3.000000000000000000 ) ) ;
#273 = VERTEX_POINT ( 'NONE', #254 ) ;
#274 = PRODUCT_DEFINITION ( 'NEZNÁMÝ', '', #24, #279 ) ;
#275 = PERSON_AND_ORGANIZATION ( #150, #48 ) ;
#276 = COORDINATED_UNIVERSAL_TIME_OFFSET ( 1, 0, .AHEAD. ) ;
#277 = EDGE_CURVE ( 'NONE', #301, #273, #156, .T. ) ;
#278 = DATE_AND_TIME ( #170, #125 ) ;
#279 = DESIGN_CONTEXT ( 'detailed design', #262, 'design' ) ;
#280 = ORIENTED_EDGE ( 'NONE', *, *, #287, .F. ) ;
#281 = FACE_OUTER_BOUND ( 'NONE', #89, .T. ) ;
#282 = AXIS2_PLACEMENT_3D ( 'NONE', #284, #184, #1 ) ;
#283 = APPLICATION_CONTEXT ( 'configuration controlled 3d designs of mechanical parts and assemblies' ) ;
#284 = CARTESIAN_POINT ( 'NONE',  ( 0.000000000000000000, 0.000000000000000000, 0.000000000000000000 ) ) ;
#285 = ADVANCED_FACE ( 'NONE', ( #176 ), #138, .F. ) ;
#286 = CC_DESIGN_PERSON_AND_ORGANIZATION_ASSIGNMENT ( #22, #300, ( #61 ) ) ;
#287 = EDGE_CURVE ( 'NONE', #228, #259, #210, .T. ) ;
#288 = LOCAL_TIME ( 12, 3, 20.00000000000000000, #207 ) ;
#289 = PERSON_AND_ORGANIZATION_ROLE ( 'creator' ) ;
#290 =( GEOMETRIC_REPRESENTATION_CONTEXT ( 3 ) GLOBAL_UNCERTAINTY_ASSIGNED_CONTEXT ( ( #255 ) ) GLOBAL_UNIT_ASSIGNED_CONTEXT ( ( #33, #163, #97 ) ) REPRESENTATION_CONTEXT ( 'NONE', 'WORKASPACE' ) );
#291 = CARTESIAN_POINT ( 'NONE',  ( 2.500000000000000000, 3.061616997868383141E-16, 318.0000000000000000 ) ) ;
#292 = LOCAL_TIME ( 12, 3, 20.00000000000000000, #233 ) ;
#293 = DIRECTION ( 'NONE',  ( -0.000000000000000000, -0.000000000000000000, -1.000000000000000000 ) ) ;
#294 = APPROVAL_ROLE ( '' ) ;
#295 = CARTESIAN_POINT ( 'NONE',  ( 0.000000000000000000, 0.000000000000000000, 3.000000000000000000 ) ) ;
#296 = ORIENTED_EDGE ( 'NONE', *, *, #253, .T. ) ;
#297 = AXIS2_PLACEMENT_3D ( 'NONE', #84, #128, #223 ) ;
#298 = EDGE_CURVE ( 'NONE', #49, #4, #60, .T. ) ;
#299 = EDGE_LOOP ( 'NONE', ( #201, #268, #257, #67 ) ) ;
#300 = PERSON_AND_ORGANIZATION_ROLE ( 'classification_officer' ) ;
#301 = VERTEX_POINT ( 'NONE', #30 ) ;
#302 = PRODUCT_DEFINITION_SHAPE ( 'NONE', 'NONE',  #274 ) ;
#303 = CARTESIAN_POINT ( 'NONE',  ( 0.000000000000000000, 0.000000000000000000, 3.000000000000000000 ) ) ;
#304 = PERSON_AND_ORGANIZATION_ROLE ( 'design_supplier' ) ;
#305 = DIRECTION ( 'NONE',  ( 1.000000000000000000, 0.000000000000000000, 0.000000000000000000 ) ) ;
#306 = ORIENTED_EDGE ( 'NONE', *, *, #264, .F. ) ;
#307 = FACE_OUTER_BOUND ( 'NONE', #299, .T. ) ;
ENDSEC;
END-ISO-10303-21;
